Rockguitar Secrets Übung 3 (Quarten I)

  • Ersteller SaitenQu?ler
  • Erstellt am
S
SaitenQu?ler
Registrierter Benutzer
Zuletzt hier
02.09.22
Registriert
03.07.05
Beiträge
185
Kekse
85
Hi zusammen,
und zwar geht es um diese Übung hier, leider ist sie im Buch nicht vollständig, bin mir zwar sicher das ich sie richtig weiterspiele aber bevor ich mir da was falsches angewöhne wollte ich mal fragen ob die jemand verfolständigen kann?

e---------------------------------........
h----------------------------5-8-----.......
g--------------------5-7---5----7----
D-----------5-7---5-----7------------
A---5-7---5----7---------------------
E-5-----8-----------------------------

und rückwärts

e-8-----5--------------------------
h---8-5----8-----5----------------
g-------------7-5----7----5----------
D----------------------7-5----7-----5---
A-------------------------------7-5------..........
E---------------------------------------.............
 
Eigenschaft
 
Wödan
Wödan
Registrierter Benutzer
Zuletzt hier
22.10.14
Registriert
01.04.05
Beiträge
1.433
Kekse
1.083
Wenn ich ds System richtig verstanden habe müsste das dann so aussehen:
Das ist ein Pentatonik Pattern

e-----------------------------------5-8--
h----------------------------5-8--5-----8

g--------------------5-7---5----7--------
D-----------5-7---5-----7----------------
A---5-7---5----7-------------------------
E-5-----8--------------------------------

und rückwärts

e-8-----5-------------------------------------
h---8-5----8-----5----------------------------
g-------------7-5----7----5-------------------
D----------------------7-5----7-----5---------
A-------------------------------7-5---7-----5-
E---------------------------------------8--5--
Nebenbei gehe ich davon aus, dass mit Absicht ein kleiner Teil fehlt damit du eben selbst draufkommen musst.
 
S
SaitenQu?ler
Registrierter Benutzer
Zuletzt hier
02.09.22
Registriert
03.07.05
Beiträge
185
Kekse
85
Hey danke,
so hatte ich mir das auch gedacht!
 

Ähnliche Themen


Neue Themen

Unser weiteres Online-Angebot:
Bassic.de · Deejayforum.de · Sequencer.de · Clavio.de · Guitarworld.de · Recording.de

Musiker-Board Logo
Oben