Slash's Godfather Theme: Tab?

von Guitar, 13.01.05.

  1. Guitar

    Guitar Registrierter Benutzer

    Im Board seit:
    09.12.04
    Zuletzt hier:
    12.10.05
    Beiträge:
    92
    Zustimmungen:
    0
    Kekse:
    22
    Erstellt: 13.01.05   #1
    Hi Guitars,

    Ich suche das Tabs von Slash'S Godfather Theme das er in Tokio 1992 Spielte.Ich suche aber nicht die Typische Godfather Melodie, sondern das Solo das er anschließend nach der Melodie Spielte. Wer die Tokio DVDs oder VHS Kassetten von Guns N Roses kennt weiß sicher was ich meine.

    Ich sag schon mal danke im voraus!
     
  2. Comrade

    Comrade Registrierter Benutzer

    Im Board seit:
    19.02.04
    Zuletzt hier:
    4.01.14
    Beiträge:
    1.894
    Ort:
    Ingolstadt
    Zustimmungen:
    2
    Kekse:
    276
    Erstellt: 13.01.05   #2
    Geh auf http://www.power-tab.net ,lad dir den Powertab-editor runter.Mit dem Ding kannst du dir Powertab-files anzeigen lassen.In diesen hast du sowohl Tab als auch noten und kannst dir das ganze auch noch als midi vorspielen lassen.

    Auf http://www.powertabs.net findest du tabs dafür.U.a. auch für Slash's godfather theme.
    genauer gesagt hier LINK

    cu
    comrade
     
  3. ingope

    ingope Registrierter Benutzer

    Im Board seit:
    05.12.04
    Zuletzt hier:
    4.01.14
    Beiträge:
    62
    Ort:
    Rendsburg
    Zustimmungen:
    0
    Kekse:
    10
    Erstellt: 14.01.05   #3
    Falls du es nicht findest --> Mail an mich, ich habs hier.
    Ist gar nicht mal sooooo schwer zu spielen :-)
     
  4. Guitar

    Guitar Threadersteller Registrierter Benutzer

    Im Board seit:
    09.12.04
    Zuletzt hier:
    12.10.05
    Beiträge:
    92
    Zustimmungen:
    0
    Kekse:
    22
    Erstellt: 14.01.05   #4
    Ja, ich hab es dank Comrade gefunden. Das Tab suche ich schon sehr lange und die Power tab page kannte ich auch noch nicht. Danke !
     
  5. alexey

    alexey Registrierter Benutzer

    Im Board seit:
    22.03.09
    Zuletzt hier:
    14.10.12
    Beiträge:
    46
    Zustimmungen:
    1
    Kekse:
    10
    Erstellt: 10.04.10   #5
    Ich kann die Tabs von
    The Godfather Theme

    in Tokio nicht finden... die haben die Seite vermutlich etwas verändert..
     
  6. Azriel

    Azriel Mod Emeritus Ex-Moderator HFU

    Im Board seit:
    22.03.09
    Zuletzt hier:
    4.12.16
    Beiträge:
    15.573
    Ort:
    Frankfurt/Main
    Zustimmungen:
    8.549
    Kekse:
    110.940
    Erstellt: 10.04.10   #6
    Nach 5! Jahren ist das auch kein Wunder.:rolleyes:
     
  7. hoss

    hoss HCA Gibson, Fender, vintage HCA

    Im Board seit:
    03.08.04
    Zuletzt hier:
    5.12.16
    Beiträge:
    18.701
    Zustimmungen:
    6.210
    Kekse:
    90.323
    Erstellt: 10.04.10   #7
    Code:
    The Godfather
    Guns N' Roses / Slash Live
    Tempo = 92
    
    Legend
    L - tied note
    x - dead note
    h - hammer on/pull off
    b - bend
    s - slide
    ~ - vibrato
    g - ghost note
    > - accentuated note
    t - trill
    M - palm mute
    . - staccato
    P - popping (bass)
    S - slapping (bass)
    + - tapping
    W - wide vibrato
    < - fade in
    w - whammy bar
    = - tremolo picking
    v - brush up
    ^ - brush down
    V - pick stroke up
    n - pick stroke down
    
    
    D#|----------------|----------------------------|----------------------------|
    A#|----------------|--15~---------14-15-16~-----|--15-15---------------------|
    F#|----------------|----------------------------|-----------15L---------15~--|
    C#|----------------|----------------------------|----------------------------|
    G#|----------------|----------------------------|----------------------------|
    D#|----------------|----------------------------|----------------------------|
    
    
    ----------------------------|----------------------------|
    --15~---------14-15-16~-----|--15-15---------------------|
    ----------------------------|-----------14L---------14~--|
    ----------------------------|----------------------------|
    ----------------------------|----------------------------|
    ----------------------------|----------------------------|
    
    
    ----------------------------|----------------------------|
    --15~---------14-15-18~-----|--15-14~---15s16s15---------|
    ----------------------------|--------------------15s16s--|
    ----------------------------|----------------------------|
    ----------------------------|----------------------------|
    ----------------------------|----------------------------|
    
    
    ----------------------------|--------------------10-13---|
    -----14s15s14~--------------|-----------------10---------|
    --15-------------14L--------|--14~-----------------------|
    ----------------------------|----------------------------|
    ----------------------------|----------------------------|
    ----------------------------|----------------------------|
    
    
    --12----------10----------13----------10----------12----------10L---------10----
    --------------------------------------------------------------------------------
    --------------------------------------------------------------------------------
    --------------------------------------------------------------------------------
    --------------------------------------------------------------------------------
    --------------------------------------------------------------------------------
    
    
    --------------------|--------------------10-13---|
    ---11----13---------|--10L---------10~10---------|
    --------------------|----------------------------|
    --------------------|----------------------------|
    --------------------|----------------------------|
    --------------------|----------------------------|
    
    
    --12----------10----------13----------10----------12----------10----------------
    --------------------------------------------------------------------------------
    --------------------------------------------------------------------------------
    --------------------------------------------------------------------------------
    --------------------------------------------------------------------------------
    --------------------------------------------------------------------------------
    
    
    --------------------|--------------------6--10---|--10L---------10b---6--9----|
    ---10s---9----------|--8~-------------8----------|-----------------8----------|
    --------------------|----------------------------|----------------------------|
    --------------------|----------------------------|----------------------------|
    --------------------|----------------------------|----------------------------|
    --------------------|----------------------------|----------------------------|
    
    
    --9b------------------------|----------------------------|
    --------------------8--10---|--10L---10b------10-6-------|
    -----------------10s--------|-----------------------6----|
    ----------------------------|----------------------------|
    ----------------------------|----------------------------|
    ----------------------------|----------------------------|
    
    
    -----------------10s10-9----|
    ----------------------------|
    --7L----------7~------------|
    ----------------------------|
    ----------------------------|
    ----------------------------|
    
    
    --8-----------------------10s12-------10------------|
    --------------------------------------------11------|
    ----------------------------------------------------|
    ----------------------------------------------------|
    ----------------------------------------------------|
    ----------------------------------------------------|
    
    
    -----------------5--8--5----|--------------------6-------|
    --10L---10b---10------------|--8~-------------8-----9----|
    ----------------------------|----------------------------|
    ----------------------------|----------------------------|
    ----------------------------|----------------------------|
    ----------------------------|----------------------------|
    
    
    --------------------10-13---|
    --10L---------10~10---------|
    ----------------------------|
    ----------------------------|
    ----------------------------|
    ----------------------------|
    
    
    --12----------10----------13----------10----------12----------10----------------
    --------------------------------------------------------------------------------
    --------------------------------------------------------------------------------
    --------------------------------------------------------------------------------
    --------------------------------------------------------------------------------
    --------------------------------------------------------------------------------
    
    
    --------------------|--------------------6--10---|--10L---------10b---6--9----|
    ---10s---9----------|--8~-------------8----------|-----------------8----------|
    --------------------|----------------------------|----------------------------|
    --------------------|----------------------------|----------------------------|
    --------------------|----------------------------|----------------------------|
    --------------------|----------------------------|----------------------------|
    
    
    --9b------------------------|----------------------------|
    --------------------8--10---|--10L---10b------10-6-------|
    -----------------10s--------|-----------------------6----|
    ----------------------------|----------------------------|
    ----------------------------|----------------------------|
    ----------------------------|----------------------------|
    
    
    ----------------------------||
    ----------------------------||
    --7L----------7~------------||
    ----------------------------||
    ----------------------------||
    ----------------------------||
    
    
     
Die Seite wird geladen...

mapping