Smoke on the Water Solo

von Number7, 25.03.07.

  1. Number7

    Number7 Registrierter Benutzer

    Im Board seit:
    18.01.07
    Zuletzt hier:
    12.09.07
    Beiträge:
    49
    Ort:
    Augsburg
    Zustimmungen:
    1
    Kekse:
    37
    Erstellt: 25.03.07   #1
    Also ich kann Smoke on the Water und das Solo auch ziemlich gut bis auf die schnelle parts da hab ich richtig schwierigkeiten.. kann mir jemand sagen was ich da dafür spieln könnte oder wie ich das Solo so richtig geil zum Metal solo bauen kann??? das wär echt nett weil ich find das lied schon ziemlich geil:great:
     
  2. kashmir

    kashmir Registrierter Benutzer

    Im Board seit:
    07.08.06
    Zuletzt hier:
    29.10.10
    Beiträge:
    190
    Ort:
    Gelnhausen
    Zustimmungen:
    0
    Kekse:
    129
    Erstellt: 25.03.07   #2
    Oh nein, mach da kein Metalsolo draus, so wars nicht gedacht, damit würdest du das Solo nur kaputt machen :rolleyes:

    Die schnellen parts sind nich soo schwer, das kannste mit ein wenig Übung relativ schnell lernen, schau dir aber mal paar verschiedene Tabs an, es gibt mehrere sehr unterschiedliche Versionen vom Solo und da sind gerade diese parts sehr unterschiedlich notiert, könnte dir ggf. eine Hilfe sein.


    Grüße

    kashmir
     
  3. Number7

    Number7 Threadersteller Registrierter Benutzer

    Im Board seit:
    18.01.07
    Zuletzt hier:
    12.09.07
    Beiträge:
    49
    Ort:
    Augsburg
    Zustimmungen:
    1
    Kekse:
    37
    Erstellt: 25.03.07   #3
    Ja gut kein Metal^^ aber sag mal welche versionen von welchen bands ich hab da six feet under und deep purple aber andre falln mir nich ein??? kleiner tipp????
     
  4. CMatuschek

    CMatuschek Registrierter Benutzer

    Im Board seit:
    01.05.05
    Zuletzt hier:
    28.11.09
    Beiträge:
    876
    Ort:
    Wesel
    Zustimmungen:
    0
    Kekse:
    228
    Erstellt: 25.03.07   #4
    Wie? Üben Üben Üben Üben Üben Üben Üben Üben Üben Üben Üben Üben Üben langsam angehen Üben Üben Üben Üben Üben Üben Üben Üben
     
  5. Sepo

    Sepo Registrierter Benutzer

    Im Board seit:
    03.07.04
    Zuletzt hier:
    5.11.13
    Beiträge:
    598
    Ort:
    München
    Zustimmungen:
    0
    Kekse:
    96
    Erstellt: 25.03.07   #5
    Der Song is von Deep Pruple, und er meinte keine Covers von anderen Bands, sondern nur, dass das Solo unterschiedlich getabbt wurde.
     
  6. Maxi

    Maxi Registrierter Benutzer

    Im Board seit:
    04.09.05
    Zuletzt hier:
    10.12.16
    Beiträge:
    3.849
    Zustimmungen:
    350
    Kekse:
    5.099
    Erstellt: 27.03.07   #6
    ´Standart penta im 3ten bund und 15ten bund (G) viel spaß!
     
  7. Maxi

    Maxi Registrierter Benutzer

    Im Board seit:
    04.09.05
    Zuletzt hier:
    10.12.16
    Beiträge:
    3.849
    Zustimmungen:
    350
    Kekse:
    5.099
    Erstellt: 27.03.07   #7
    -20-18-15-22-18-15-------------------------------------
    ------------------------22-18-15-20-18-15---------------
    -----------------------------------------------19-17-15---
    -------------------------------------------------------------
    -------------------------------------------------------------
    -------------------------------------------------------------
    mach halt nen taping solo wennu metal machen willst... taping auf standart penta ist doch easy oder meinetwegen!
    ------------------------------------------8-10-11-10-8-----------------------------------------
    -------------------------------8-10-11------------------11-10-8-11-10-8---------------------
    -----------------------5-7-8--------------------------------------------------10-8-7-10-8-7---
    ---------------5-7-8------------------------------------------------------------------------------
    --------3-5-6------------------------------------------------------------------------------------
    -3-5-6-------------------------------------------------------------------------------------------
    oder so nan geschrubb... kannst au mit hammer ons und pull offs zocken...
    nimm dir am besten einfach die standart penta und bleib beim rock und mach kein metal draus... aber mei wennst metal haben willst nimm so licks wie obene oder so!
     
Die Seite wird geladen...

mapping