Song raushören "Kings of convenience"

von simon_says, 13.01.07.

  1. simon_says

    simon_says Registrierter Benutzer

    Im Board seit:
    13.01.07
    Zuletzt hier:
    30.01.07
    Beiträge:
    4
    Ort:
    Essen
    Zustimmungen:
    0
    Kekse:
    10
    Erstellt: 13.01.07   #1
    Hallo zusammen!

    Hier ist mal wieder einer zu doof zum raushören, daher bin ich für Hilfe sehr dankbar ;-)
    Wollte mir von den Kings og Convenience Misread vornehmen.
    Habe zu dem Song bei youtube auch 2 Live-Mitschnitte gefunden, bei denen man 1. sehen kann wie man den song auch ganz nett mit 2 Gitarrren (anstelle Klavier) spielen kann und 2. eigentlich auch die Akkorde/Griffe ganz gut sieht. Eigentlich - ich kann es aber trotzdem nicht so recht filtern.
    Weder die Akkorde kommen mir bekannt vor, noch die Anschlagtechnik kann ich raushören.

    YouTube - Kings of convenience ipanema beach 3
    YouTube - Kings of convenience small show part 2
    YouTube - Kings of Convenience - Misread (original video)

    Vielleicht hat ja noch jemand Spaß an dem Song und Bock mir da zu helfen.
    Würde mich freuen!
    Grüße,
    Simon
     
  2. zwieback-dude

    zwieback-dude Registrierter Benutzer

    Im Board seit:
    18.08.03
    Zuletzt hier:
    7.12.16
    Beiträge:
    474
    Zustimmungen:
    11
    Kekse:
    585
    Erstellt: 13.01.07   #2
    Hi,
    cool, dass die noch jemand kennt =) Das Lied ist ein echter Ohrwurm, ich schau mir mal die Videos an und ma guggn.. vielleicht hör ich da was raus..^^
     
  3. simon_says

    simon_says Threadersteller Registrierter Benutzer

    Im Board seit:
    13.01.07
    Zuletzt hier:
    30.01.07
    Beiträge:
    4
    Ort:
    Essen
    Zustimmungen:
    0
    Kekse:
    10
    Erstellt: 13.01.07   #3
    Jo, danke! Das wäre super!
     
  4. zwieback-dude

    zwieback-dude Registrierter Benutzer

    Im Board seit:
    18.08.03
    Zuletzt hier:
    7.12.16
    Beiträge:
    474
    Zustimmungen:
    11
    Kekse:
    585
    Erstellt: 13.01.07   #4
    So, hab jetzt die Akkorde aufgeschrieben, aber nicht wie oft man sie spielen muss. Die Tabs beziehen sich auf den 2. Youtubelink. Sie sind nicht ganz vollständig, aber nach dem Vers wiederholt sich der ganze Spaß eigentlich nur noch =)

    Code:
    
        D   am7                    dm7 G7
    e|-------------------------------------------------|
    b|------5-------------5--------10--3---------------|
    g|-11---5---11--------5---11---10--4---------------|
    d|------5-------------5--------10--3---------------|
    a|-12-------12------------12---12------------------|
    e|-10---5---10-12-12--5---10---10--3---------------|
            T             T            T
    
    
    e|-------------------------------------------------------------------|
    b|-3----3-------8---3---3---5----------------------------------------|
    g|-2----2---9---9---2---2---5---9------------------------------------|
    d|-3----3------10---3---3---5----------------------------------------|
    a|---------10---7--------------10------------------------------------|
    e|-1----3---8-------1---3---5---8------------------------------------|
       T                T       T
    
                         x5
    e||------------------||-----------------|
    b||--3---3-------8---||-3---3---5-------|
    g||.-2---2---9---9--.||-2---2---5---9---|
    d||.-3---3------10--.||-3---3---5-------|
    a||---------10---7---||------------10---|
    e||--1---3---8-------||-1---3---5---8---|
    
    edit:
    In der 2. Reihe sind die Akkorde glaub ich: Fmaj7 - Fmaj7/G - C - C/E - Fmaj7 - Fmaj7/G - am7 - C.
    Vielleicht spielt der auch manchmkal statt Fmaj7 auch n normales F, musste mal schauen.
     
  5. simon_says

    simon_says Threadersteller Registrierter Benutzer

    Im Board seit:
    13.01.07
    Zuletzt hier:
    30.01.07
    Beiträge:
    4
    Ort:
    Essen
    Zustimmungen:
    0
    Kekse:
    10
    Erstellt: 13.01.07   #5
    Ja, super! Vielen für Deine Mühe!!
    Ich werde das mal "testen". Aber noch mal eine kurze Frage dazu:
    Hast Du auch rausbekommen wie der Rhythmus gespielt, geklopft wird? Danke



     
  6. zwieback-dude

    zwieback-dude Registrierter Benutzer

    Im Board seit:
    18.08.03
    Zuletzt hier:
    7.12.16
    Beiträge:
    474
    Zustimmungen:
    11
    Kekse:
    585
    Erstellt: 13.01.07   #6
    Ok, ich hab mal das Anschlagsmuster vom Vers aufgeschrieben.. sollte so einigermaßen hinhauen^^

    Bei den x' kannst du entweder mit den fingern auf die Saiten hauen, sodass es "klack" macht oder mit dem Daumen auf die Holzdecke der Gitarre.. über der tiefen E-Saite. Wobei ich da dann mehr Richtung Steg auf das Holz klopf, weil es dort lauter ist.

    Die x' sind hier in unregelmäßigem Abstand aufgeschrieben, aber die sollten schon regelmäßig gespielt werden.. ist nur etwas schwer bei Tabs punktierte Noten etc aufzuschreiben.

    Code:
    e|---x-------x------x-------x------x--------x--------x--------x----|
    b|-3-x-----3-x-3--3-x-----3-x------x--------x--------x------8-x----|
    g|-2-x-----2-x-2--2-x-----2-x----9-x------9-x--9---9-x------9-x----|
    d|-3-x-----3-x-3--3-x-----3-x------x--------x--------x-----10-x----|
    a|---x-------x------x-------x---10-x-----10-x-10--10-x-7-7----x-7--|
    e|-1-x-1-1---x-3----x-3-3---x-3--8-x-8-8----x--8-----x--------x----|
    
    
     
  7. simon_says

    simon_says Threadersteller Registrierter Benutzer

    Im Board seit:
    13.01.07
    Zuletzt hier:
    30.01.07
    Beiträge:
    4
    Ort:
    Essen
    Zustimmungen:
    0
    Kekse:
    10
    Erstellt: 13.01.07   #7
    Nochnmal Danke! Damit haste mich heute glücklich gemacht ;-)
    Werde mir mal versuchen das drauf zu schaffen (brauch ich wohl ein wenig länger für) und dann guck ich mal wie es sich bei mir anhört...
    Grüße
     
Die Seite wird geladen...

mapping