songs von nirvana und guns of brixton

von sommerkind, 08.04.06.

  1. sommerkind

    sommerkind Registrierter Benutzer

    Im Board seit:
    29.03.06
    Zuletzt hier:
    10.04.06
    Beiträge:
    1
    Ort:
    Linz
    Zustimmungen:
    0
    Kekse:
    10
    Erstellt: 08.04.06   #1
    alsoo
    nachdem wir in musik vorhaben irgendeinen song von nirvana und auch guns of brixton von the clash zu singen bräuchte ich die noten und den text dazu
    würd mich sehr freun wenn mir da einer von euch helfen könnte =)
    glg
    magda
     
  2. Marc02

    Marc02 Registrierter Benutzer

    Im Board seit:
    04.10.05
    Zuletzt hier:
    4.12.16
    Beiträge:
    1.408
    Ort:
    (wieder) Hannover
    Zustimmungen:
    1.071
    Kekse:
    15.430
    Erstellt: 09.04.06   #2
    Texte und Tabs von Welthits wie guns of brixton sind nahezu problemlos zu finden. Google ist dei Freund. Aber bekannte Seiten wie www.basstabarchive.com oder www.lyrycsarchive.com helfen dir bestimmt auch. Für weitere links guckst du bitte in den sticky threads der Anfänger Topics, der jeweiligen Instrumente.

    Und ähm, "irgendein Lied von Nirvana" wird dir hier sicher niemand posten.

    Sorry wenn man zu einer Band Texte usw. finden dann zu Nirvana. Dass du hier danach fragst,zeigt, dass du 0 Eigeninitiative ergriffen hast. Es wäre kein Problem gewesen wenn du es mit "Hallo, ich suche dies und das, habe hier und da gesucht, nichts gefunden und brauche nun hilfe" versucht hättest.

    :rolleyes:
     
  3. ebbe

    ebbe Registrierter Benutzer

    Im Board seit:
    07.04.06
    Zuletzt hier:
    9.11.12
    Beiträge:
    376
    Ort:
    Schleswig-Holstein
    Zustimmungen:
    1
    Kekse:
    128
    Erstellt: 09.04.06   #3
    Hier das hatte ich grade offen:

    Nirvana - Sappy

    And if you save yourself
    You will make him happy

    He'll keep you in a jar
    And you'll think you're happy
    He'll give you breathing holes
    And you'll think you're happy
    He'll cover you with grass
    And you'll think you're happy
    Now

    You're really in a laundry room (x2)
    Conclusion came to you
    Ahh

    And if you cut yourself
    You will think you're happy
    He'll keep you in a jar
    And you'll make him happy
    He'll give you breathing holes
    And you'll think you're happy
    He'll cover you with grass
    And you'll think you're happy
    Now

    (x2)
    You're really in a laundry room (x2)
    Conclusion came to you
    Ahh

    And if you fool yourself
    You will make him happy
    He'll keep you in a jar
    Then you'll think you're happy
    He'll give you breathing holes
    Then you will think you're happy
    You'll wallow in your shit
    Then you'll think you're happy
    Now

    You're in a laundry room (x3)
    Conclusion came to you
    Ahh



    Und Hier die Tabs:

    And if you save ...

    B5 Gmaj7 Esus2 F#sus4
    |-----------------|---------------------|-----------------|
    |-----------------|---------------------|-----------------|
    |-----4-----4-----|------4----------4---|-----------------|
    |---4-----4-----4-|----4----------4-----|-----4-----4-----|
    |-2-----2-----2---|---------------------|---4-----4-----4-|
    |-----------------|-3------3---0------0-|-2-----2-----2---|

    G5 A5 B5
    |-------------------|-----------------|
    |-------------------|-----------------|
    |------0-------2----|-----4-----4-----|
    |----0-------2------|---4-----4-----4-|
    |----------0------0-|-2------2-----2--|
    |-3------3----------|-----------------|

    *Chorus*:

    You're in a laundry ...

    Gmaj7 Esus2
    |-----------------|-----------------|
    |-----------------|-----------------|
    |-----4-----4-----|-----4-----4-----|
    |---4-----4-----4-|---4-----4-----4-|
    |-----------------|-----------------|
    |-3-----3-----3---|-0-----0-----0---|

    ich denke der würde für den Musik unterricht gehen :)

    oder wenns leicht für die gittare sein soll einfach Territorial pissings:

    Nirvana - "Territorial Pissings"


    rhy.fig 1
    w/heavy distortion
    ------------------------------------------------
    ------------------------------------------------
    ------------------------------------------------
    --7--7--7--7--7--7------------------------------
    --7--7--7--7--7--7----0-------------------------
    --5--5--5--5--5--5----0-------------------------


    ------------------------------------------------
    ------------------------------------------------
    --10--10--10--10--10--10--10--------------------
    --10--10--10--10--10--10--10--------------------
    --8---8---8---8---8---8---8-----0---------------
    --------------------------------0---------------


    ------------------------------------------------
    ------------------------------------------------
    ------------------------------------------------
    --12--12--12--12--12--12--12--12----------------
    --12--12--12--12--12--12--12--12----------------
    --10--10--10--10--10--10--10--10----------------

    ------------------------------------------------
    ------------------------------------------------
    ------------------------------------------------
    --12--12--12--12--12--12--12--12----------------
    --12--12--12--12--12--12--12--12----0-----------
    --10--10--10--10--10--10--10--10----0-----------

    Hier die Lyrics:

    Come on people now smile on your brother everybody get together, try love one another right now

    When I was an alien
    Cultures weren't opinions

    Gotta find a way, a better way, when I'm there
    Gotta find a way - a better way - better way

    Never met a wise man
    If so it's a woman

    Gotta find a way, a better way, when I'm there
    Gotta find a way - a better way - better way
    (x2)

    Just because you're paranoid
    Don't mean they're not after you

    Gotta find a way, a better way, when I'm there
    Gotta find a way - a better way - better way
    (x3)

    Ich glaub das ist leicht zu schaffen ;)

    Sonst hilft es wirklich nicht viel wenn man sag " irgend ein Nirvana Song " :D
     
  4. Palmer Eldritch

    Palmer Eldritch Registrierter Benutzer

    Im Board seit:
    23.12.05
    Zuletzt hier:
    5.12.11
    Beiträge:
    95
    Zustimmungen:
    2
    Kekse:
    81
    Erstellt: 09.04.06   #4
    Für den Musikunterricht stelle ich mir von Nirvana "All Apologies" schön vor..

    http://www.olga.net/
     
  5. Exciter

    Exciter Registrierter Benutzer

    Im Board seit:
    22.08.03
    Zuletzt hier:
    18.07.10
    Beiträge:
    1.318
    Zustimmungen:
    2
    Kekse:
    1.466
    Erstellt: 10.04.06   #5
  6. Palmer Eldritch

    Palmer Eldritch Registrierter Benutzer

    Im Board seit:
    23.12.05
    Zuletzt hier:
    5.12.11
    Beiträge:
    95
    Zustimmungen:
    2
    Kekse:
    81
    Erstellt: 10.04.06   #6
    Wir durften ein gefühltes Jahr lang jede Musikstunde "Über den Wolken" und "Ob-La-Di, Ob-La-Da" singen. Direkt ein Wunder, dass ich danach doch noch Beatles-Fan geworden bin. :D (Für Mey hat's nicht mehr gereicht.)
     
  7. VaddaCobain

    VaddaCobain Registrierter Benutzer

    Im Board seit:
    04.12.05
    Zuletzt hier:
    15.03.07
    Beiträge:
    74
    Ort:
    Neuss
    Zustimmungen:
    0
    Kekse:
    176
    Erstellt: 11.04.06   #7
    Wenn euer Sänger sich die Stimme ruinieren will, empfehle ich "Tourettes" von Nirvana... http://www.fretplay.com/tabs/n/nirvana/tourettes-tab.shtml

    tourette's - Nirvana
    --------------------

    Moderate rock..

    Here's your enemy in my life
    Get out, out of sight, of my heart
    Will no [additive] of my heart
    Pull hard, sever free, of my heart?
    HEY!

    HEY!

    HEYYYYYYYYYYYYYYYYYYYY! (3x)

    I don't care, I'm [afraid], it's [my heart]
    [Clear all] effigy of my heart
    Oh no! it's the fall of my heart
    Oh no! it's the call of my heart
    HEY!

    HEY!

    HEYYYYYYYYYYYYYYYYYYYYYYYYYYYYYYYYYYYYYYYYYYYYYYYY!


    Ansonsten kommen Sachen wie Rape Me vielleicht ganz gut...

    Tab: http://www.guitaretab.com/n/nirvana/23282.html
    Lyrics: http://www.lyricsdownload.com/nirvana-rape-me-lyrics.html

    Molly's Lips wurde von Nirvana nur gecovert, aber auch ganz gut zu spielen...
    Tab hab ich keine Lust zu suchen, sind einfach nur Powerchords G und C ;)
    Lyrics: http://www.lyricsdownload.com/nirvana-mollys-lips-lyrics.html

    Viel Spaß :)
     
  8. Fingers Freddy

    Fingers Freddy Registrierter Benutzer

    Im Board seit:
    28.08.05
    Zuletzt hier:
    9.01.16
    Beiträge:
    739
    Ort:
    Dachau, Bayern
    Zustimmungen:
    84
    Kekse:
    5.234
    Erstellt: 11.04.06   #8
    Dito, mein Lieber, dito!:D
    Du bist nicht zufällig auf das Dachauer Ignaz-Taschner-Gymnasium gegangen??:D
     
  9. Palmer Eldritch

    Palmer Eldritch Registrierter Benutzer

    Im Board seit:
    23.12.05
    Zuletzt hier:
    5.12.11
    Beiträge:
    95
    Zustimmungen:
    2
    Kekse:
    81
    Erstellt: 11.04.06   #9
    Ne, ich bin nicht mal im selben Land zur Schule gegangen. :D (Bin aus Wien.)
    Lag's vielleicht am Schulbuch?