Stelle im "One" Intro Solo

von Totte, 16.03.04.

  1. Totte

    Totte Registrierter Benutzer

    Im Board seit:
    29.11.03
    Zuletzt hier:
    22.09.14
    Beiträge:
    291
    Ort:
    Bochum
    Zustimmungen:
    0
    Kekse:
    34
    Erstellt: 16.03.04   #1
    Hi!

    Und zwar suche ich die eine Stelle im Intro Solo von "One" (Metallica),die etwas schneller als der Rest ist.Sie besteht aus 3 oder 4 schnellen Pull Offs und einem Slide,glaube ich.Bis jetzt habe ich die Stelle noch nie wirklich korrekt irgendwo gefunden,selbst bei der Power Tap Version ist sie glaub ich falsch.Kenn jemand eine komplett richtige Verrsion davon? Vielen Dank im Vorraus.
     
  2. Jim_Dandy

    Jim_Dandy Registrierter Benutzer

    Im Board seit:
    12.03.04
    Zuletzt hier:
    23.11.12
    Beiträge:
    283
    Zustimmungen:
    0
    Kekse:
    23
    Erstellt: 16.03.04   #2
    Vielleicht so:

    |--------------------------------------------
    |-----7p5---5p4---4p2---2p0-----------
    |------------------------------------2/4----
    |--------------------------------------------
    |--------------------------------------------
    |--------------------------------------------
     
  3. Jumpy

    Jumpy Registrierter Benutzer

    Im Board seit:
    20.08.03
    Zuletzt hier:
    24.03.05
    Beiträge:
    355
    Ort:
    Bayern
    Zustimmungen:
    0
    Kekse:
    10
    Erstellt: 16.03.04   #3
    Hi!
    Ich hab alle meine Tabs zu Metallica von der Site www.powertabs.net
    Hier haben wir nen Thread mit einer fätten Liste mit Tab-Sites....kannst ja mal gucken...und suchen..zu "One" findest scho einiges )
    Greetz!
     
  4. Totte

    Totte Threadersteller Registrierter Benutzer

    Im Board seit:
    29.11.03
    Zuletzt hier:
    22.09.14
    Beiträge:
    291
    Ort:
    Bochum
    Zustimmungen:
    0
    Kekse:
    34
    Erstellt: 16.03.04   #4

    Danke! Das dürfte es sein ;)
     
  5. Seren

    Seren Registrierter Benutzer

    Im Board seit:
    05.03.04
    Zuletzt hier:
    16.08.05
    Beiträge:
    265
    Zustimmungen:
    0
    Kekse:
    12
    Erstellt: 16.03.04   #5
    Falls Du den schnelleren Teil gleich am Anfang meinst, kenn ich den so:

    [code:1]


    |--------------------|-----------------------|-----------------|
    |-------------full---|---3p2------3p2-----3--|----3p2----------|
    |---------2---4/\----|--------4--------2-----|---------4-------|
    |------4-------------|-----------------------|-----------------|
    |---2----------------|-----------------------|-----------------|
    |--------------------|-----------------------|-----------------|


    |----------------------------------------|---------------------|
    |----------------------------------------|----------------2h3--|
    |----11p9------9p7---7p6p0--2--6p4p0--2--|----/4-------/4------|
    |----------12----------------------------|---------------------|
    |----------------------------------------|---------------------|
    |----------------------------------------|---------------------|

    sl~~~~~~~~~~~~
    |-------------------------|----------------|
    |--2----------2---3p2-----|----------------|
    |--------/4------------2--|--/4------------|
    |-------------------------|----------------|
    |-------------------------|----------------|
    |-------------------------|----------------|

    [/code:1]

    die leerseiten im 4.takt kannst aber auch weglassen, hört man eh nicht

    Edit: Die Gits sind dabei nen Halbton runtergestimmt, aber ich denk, das weisst ja schon
    Hatt mich vertan ... ist normal gestimmt, s.u.

    Nochmal edit: hatte den 4.takt eine Seite zu hoch aufgeschrieben, jetzt passts
     
  6. ...timur°°°

    ...timur°°° Registrierter Benutzer

    Im Board seit:
    29.08.03
    Zuletzt hier:
    27.09.09
    Beiträge:
    1.332
    Ort:
    Berlin
    Zustimmungen:
    1
    Kekse:
    753
    Erstellt: 18.03.04   #6
    Hehe... das hast du aus dem offiziellen Notenbuch abgeschrieben!
    Da steht's nämlich genauso drin.

    Und die Gitarren sind NICHT runtergestimmt. Live und auf S&M einen halben Ton runter, aber auf "...and Justice for All" ist es die Normalstimmung.
     
  7. Seren

    Seren Registrierter Benutzer

    Im Board seit:
    05.03.04
    Zuletzt hier:
    16.08.05
    Beiträge:
    265
    Zustimmungen:
    0
    Kekse:
    12
    Erstellt: 19.03.04   #7
    Muss ich dich leider enttäuschen, ich hab das Notenbuch gar net. Kann aber sein, dass derjenige, der mir das vor Jahren mal gezeigt hat, das aus dem Buch hatte.

    Oups, mein Fehler :oops: habs schon lang nichtmehr zur CD gespielt
     
  8. Terence Hill

    Terence Hill Registrierter Benutzer

    Im Board seit:
    17.11.03
    Zuletzt hier:
    24.07.05
    Beiträge:
    444
    Ort:
    Manching
    Zustimmungen:
    0
    Kekse:
    10
    Erstellt: 27.03.04   #8
    Halt ich habe auch noch eine Frage :mrgreen:


    -----------------------------------7-----------7------|
    ------7---8--10------------7---8----------7---------|
    ---7--------------------7---------------7------------|
    -9------------------9----------------9---------------|
    ------------------------------------------------------|
    ------------------------------------------------------|

    Wie spiele ich das am besten? Also Fingerbesetzung?
    Ist auch vom One Introsolo. Danke ;)
     
  9. Crusher

    Crusher Mod Emeritus Ex-Moderator

    Im Board seit:
    18.08.03
    Zuletzt hier:
    6.03.16
    Beiträge:
    1.814
    Ort:
    Deutschland
    Zustimmungen:
    1
    Kekse:
    90
    Erstellt: 27.03.04   #9
    RF-Zf-Zf-Mf-kF---Rf-Zf-Zf-Mf-Zf---Rf-Zf-Zf-Zf

    Rf = Ringfinger ; Zf = Zeigefinger ; Mf = Mittelfinger ; kF = kleiner Finger


    Allerdings kenn ich das so:

    ---------------------------------------------
    -------------------------------------12-----
    --------11-12-14----------11-12----------
    ----12-------------------12----------------
    -14-------------------14-------------------
    -------------------------------------------- etc.
     
  10. Terence Hill

    Terence Hill Registrierter Benutzer

    Im Board seit:
    17.11.03
    Zuletzt hier:
    24.07.05
    Beiträge:
    444
    Ort:
    Manching
    Zustimmungen:
    0
    Kekse:
    10
    Erstellt: 27.03.04   #10
    thx. :D ;)
     
  11. Terence Hill

    Terence Hill Registrierter Benutzer

    Im Board seit:
    17.11.03
    Zuletzt hier:
    24.07.05
    Beiträge:
    444
    Ort:
    Manching
    Zustimmungen:
    0
    Kekse:
    10
    Erstellt: 30.03.04   #11
    Ich blödmann man muss halt nur nen Barre über drei Saiten machen :rolleyes: ;)
     
  12. Crusher

    Crusher Mod Emeritus Ex-Moderator

    Im Board seit:
    18.08.03
    Zuletzt hier:
    6.03.16
    Beiträge:
    1.814
    Ort:
    Deutschland
    Zustimmungen:
    1
    Kekse:
    90
    Erstellt: 30.03.04   #12
    Naja weil die Noten nicht ausklingen dürfen darf man keinen richtigen Barré machen, man muss den Zeigefinger da sonen bisschen "rollen" sozusagen. Ich find allerdings meine version komfortabler.
     
Die Seite wird geladen...

mapping