Stelle im "One" Intro Solo

T

Totte

Registrierter Benutzer
Zuletzt hier
22.09.14
Registriert
29.11.03
Beiträge
291
Kekse
24
Ort
Bochum
Hi!

Und zwar suche ich die eine Stelle im Intro Solo von "One" (Metallica),die etwas schneller als der Rest ist.Sie besteht aus 3 oder 4 schnellen Pull Offs und einem Slide,glaube ich.Bis jetzt habe ich die Stelle noch nie wirklich korrekt irgendwo gefunden,selbst bei der Power Tap Version ist sie glaub ich falsch.Kenn jemand eine komplett richtige Verrsion davon? Vielen Dank im Vorraus.
 
J

Jim_Dandy

Registrierter Benutzer
Zuletzt hier
23.11.12
Registriert
12.03.04
Beiträge
283
Kekse
13
Vielleicht so:

|--------------------------------------------
|-----7p5---5p4---4p2---2p0-----------
|------------------------------------2/4----
|--------------------------------------------
|--------------------------------------------
|--------------------------------------------
 
J

Jumpy

Registrierter Benutzer
Zuletzt hier
24.03.05
Registriert
20.08.03
Beiträge
353
Kekse
0
Ort
Bayern
Hi!
Ich hab alle meine Tabs zu Metallica von der Site www.powertabs.net
Hier haben wir nen Thread mit einer fätten Liste mit Tab-Sites....kannst ja mal gucken...und suchen..zu "One" findest scho einiges )
Greetz!
 
T

Totte

Registrierter Benutzer
Zuletzt hier
22.09.14
Registriert
29.11.03
Beiträge
291
Kekse
24
Ort
Bochum
Jim_Dandy schrieb:
Vielleicht so:

|--------------------------------------------
|-----7p5---5p4---4p2---2p0-----------
|------------------------------------2/4----
|--------------------------------------------
|--------------------------------------------
|--------------------------------------------


Danke! Das dürfte es sein ;)
 
Seren

Seren

Registrierter Benutzer
Zuletzt hier
16.08.05
Registriert
05.03.04
Beiträge
263
Kekse
2
Falls Du den schnelleren Teil gleich am Anfang meinst, kenn ich den so:

[code:1]


|--------------------|-----------------------|-----------------|
|-------------full---|---3p2------3p2-----3--|----3p2----------|
|---------2---4/\----|--------4--------2-----|---------4-------|
|------4-------------|-----------------------|-----------------|
|---2----------------|-----------------------|-----------------|
|--------------------|-----------------------|-----------------|


|----------------------------------------|---------------------|
|----------------------------------------|----------------2h3--|
|----11p9------9p7---7p6p0--2--6p4p0--2--|----/4-------/4------|
|----------12----------------------------|---------------------|
|----------------------------------------|---------------------|
|----------------------------------------|---------------------|

sl~~~~~~~~~~~~
|-------------------------|----------------|
|--2----------2---3p2-----|----------------|
|--------/4------------2--|--/4------------|
|-------------------------|----------------|
|-------------------------|----------------|
|-------------------------|----------------|

[/code:1]

die leerseiten im 4.takt kannst aber auch weglassen, hört man eh nicht

Edit: Die Gits sind dabei nen Halbton runtergestimmt, aber ich denk, das weisst ja schon
Hatt mich vertan ... ist normal gestimmt, s.u.

Nochmal edit: hatte den 4.takt eine Seite zu hoch aufgeschrieben, jetzt passts
 
...timur°°°

...timur°°°

Registrierter Benutzer
Zuletzt hier
27.09.09
Registriert
29.08.03
Beiträge
1.335
Kekse
743
Ort
Berlin
Hehe... das hast du aus dem offiziellen Notenbuch abgeschrieben!
Da steht's nämlich genauso drin.

Und die Gitarren sind NICHT runtergestimmt. Live und auf S&M einen halben Ton runter, aber auf "...and Justice for All" ist es die Normalstimmung.
 
Seren

Seren

Registrierter Benutzer
Zuletzt hier
16.08.05
Registriert
05.03.04
Beiträge
263
Kekse
2
Muss ich dich leider enttäuschen, ich hab das Notenbuch gar net. Kann aber sein, dass derjenige, der mir das vor Jahren mal gezeigt hat, das aus dem Buch hatte.

timur_doumler schrieb:
..., aber auf "...and Justice for All" ist es die Normalstimmung.

Oups, mein Fehler :oops: habs schon lang nichtmehr zur CD gespielt
 
Terence Hill

Terence Hill

Registrierter Benutzer
Zuletzt hier
24.07.05
Registriert
17.11.03
Beiträge
431
Kekse
0
Ort
Manching
Halt ich habe auch noch eine Frage :mrgreen:


-----------------------------------7-----------7------|
------7---8--10------------7---8----------7---------|
---7--------------------7---------------7------------|
-9------------------9----------------9---------------|
------------------------------------------------------|
------------------------------------------------------|

Wie spiele ich das am besten? Also Fingerbesetzung?
Ist auch vom One Introsolo. Danke ;)
 
Crusher

Crusher

Mod Emeritus
Ex-Moderator
Zuletzt hier
06.03.16
Registriert
18.08.03
Beiträge
1.799
Kekse
80
Ort
Deutschland
Terence Hill schrieb:
Halt ich habe auch noch eine Frage :mrgreen:


-----------------------------------7-----------7------|
------7---8--10------------7---8----------7---------|
---7--------------------7---------------7------------|
-9------------------9----------------9---------------|
------------------------------------------------------|
------------------------------------------------------|

Wie spiele ich das am besten? Also Fingerbesetzung?
Ist auch vom One Introsolo. Danke ;)

RF-Zf-Zf-Mf-kF---Rf-Zf-Zf-Mf-Zf---Rf-Zf-Zf-Zf

Rf = Ringfinger ; Zf = Zeigefinger ; Mf = Mittelfinger ; kF = kleiner Finger


Allerdings kenn ich das so:

---------------------------------------------
-------------------------------------12-----
--------11-12-14----------11-12----------
----12-------------------12----------------
-14-------------------14-------------------
-------------------------------------------- etc.
 
Terence Hill

Terence Hill

Registrierter Benutzer
Zuletzt hier
24.07.05
Registriert
17.11.03
Beiträge
431
Kekse
0
Ort
Manching
Terence Hill

Terence Hill

Registrierter Benutzer
Zuletzt hier
24.07.05
Registriert
17.11.03
Beiträge
431
Kekse
0
Ort
Manching
Ich blödmann man muss halt nur nen Barre über drei Saiten machen :rolleyes: ;)
 
Crusher

Crusher

Mod Emeritus
Ex-Moderator
Zuletzt hier
06.03.16
Registriert
18.08.03
Beiträge
1.799
Kekse
80
Ort
Deutschland
Naja weil die Noten nicht ausklingen dürfen darf man keinen richtigen Barré machen, man muss den Zeigefinger da sonen bisschen "rollen" sozusagen. Ich find allerdings meine version komfortabler.
 

Ähnliche Themen

Neue Themen

Unser weiteres Online-Angebot:
Bassic.de · Deejayforum.de · Sequencer.de · Clavio.de · Recording.de

Musiker-Board Logo
Oben