Tabs für Beach Boys I Get Around GITARRENSOLO gesucht

von guitardoc, 20.08.07.

  1. guitardoc

    guitardoc Registrierter Benutzer

    Im Board seit:
    24.07.06
    Zuletzt hier:
    19.06.16
    Beiträge:
    1.654
    Ort:
    In der Nähe der ehemaligen Olympiastadt Leipzig
    Zustimmungen:
    120
    Kekse:
    3.099
    Erstellt: 20.08.07   #1
    Hat jemand das Solo als Tab? Den restlichen Song habe ich drauf, was mir fehlt ist das GITARRENSOLO wo alle aouhhh aouhhh singen! Schaffe es nicht mehr es rauszuhören, bin auf Achse und am WE soll es gespielt werden. Na Prost Mahlzeit... Hoffentlich kann mir jemand mit den Tabs aushelfen?
     
  2. Zatziki

    Zatziki Registrierter Benutzer

    Im Board seit:
    20.05.06
    Zuletzt hier:
    9.12.16
    Beiträge:
    58
    Zustimmungen:
    0
    Kekse:
    53
    Erstellt: 20.08.07   #2
    Das hier?:

    Code:
                                    Interlude
                                     D
               PM        PM   PM     PM-------------------------
      E  E     E  E      E  E E E    E E      E  E E E  E  E
    |-----------------------------||---------------------------|
    |-----------------------------||---------------------------|
    |-6--6--------6---------6---6-||-7-7------7--7-7-7--7--7---|
    |-7--7--------7---------7---7-||-7-7------7--7-7-7--7--7---|
    |-7--7-----7--7------7--7-7-7-||-5-5------5--5-5-5--5--5---|
    |----------5---------5----5---||---------------------------|
    |
    | E +S  S +E  E     +E  E Q      E S S a  Q    E E  E  S S
    |-8-(8)-5-(5)-----------5-----||-------------------------5-|
    |-------------8b8.5-(8)-------||-------5-(5)---------------|
    |-----------------------------||-------5h=7----5-----------|
    |-----------------------------||---5h7-----------7-(5)-----|
    |-----------------------------||---------------------------|
    |-----------------------------||---------------------------|
    
    
                                                      A
     ----------------------------------------------------------------------|
      E     E   E     E   E       E           E   E   E E  E      E E E  E  E
    |-----------------------------------------------|--------------------------|
    |-----------------------------------------------|--------------------------|
    |-7-----7---7-----7---7-------7-----------7---7-|--------------------------|
    |-7-----7---7-----7---7-------7-----------7---7-|-7-7--7------7-7-7--7--7--|
    |-5-----5---5-----5---5-------5-----------5---5-|-7-7--7------7-7-7--7--7--|
    |-----------------------------------------------|-5-5--5------5-5-5--5--5--|
    |
    |                                                 ~
    | E.      S E.      S E      +S   S      +E   E   Q    S   S  Q   E  E  E
    |-8b8.5-----------------------------------------|-----------------------9--|
    |---------5-8b8.5-------------------------------|-------------------10-10--|
    |-------------------5-7b7.5==(7)r-7b7.5==(7)r-7-|--------------------9-----|
    |-----------------------------------------------|-7---(7)-(7)-7------------|
    |-----------------------------------------------|--------------------------|
    |-----------------------------------------------|--------------------------|
    
    
       E   E        E  E   E    E   E  E
    |------------------------------------|
    |------------------------------------|
    |------------------------------------|
    |--7---7--------7--7---7----7---7--7-|
    |--7---7--------7--7---7----7---7--7-|
    |--5---5--------5--5---5----5---5--5-|
    |
    |  E   S    S   E  E  +E    E   E  E
    |-10h=12p==10-----12-(12)-(12)-------|
    |-10-(10)-(10)-10-12-(12)-(12)-15\---|
    |------------------------------14\---|
    |------------------------------------|
    |------------------------------------|
    |------------------------------------|
    
    
      E7                                  F7
              PM   PM              PM            PM   PM              PM
      E   E   E  E E  E            E E      E  E E  E E  E            E E
    |----------------------------------||---------------------------------||
    |----------------------------------||---------------------------------||
    |-1---1------1----1--------------1-||---2--2----2----2--------------2-||
    |-0---0------0----0--------------0-||---1--1----1----1--------------1-||
    |-2---2---2--2-2--2------------2-2-||---3--3-3--3-3--3------------3-3-||
    |---------0----0---------------0---||--------1----1---------------1---||
    |
    |                 |---3----|                         |---3----|
    | E   E   E  E E  S   S    S   E E      Q.      E E  S   S    S   E E
    |----------------------------------||---------------------------------||
    |-----------12---12h=14p==12--12---||----------13---13h=15p==13--13---||
    |--------13-13---13-(13)-(13)-13---||-(14)-----14---14-(14)-(14)-14---||
    |---(14)-14------------------------||-(15)----------------------------||
    |----------------------------------||---------------------------------||
    |----------------------------------||---------------------------------||
    
     
  3. guitardoc

    guitardoc Threadersteller Registrierter Benutzer

    Im Board seit:
    24.07.06
    Zuletzt hier:
    19.06.16
    Beiträge:
    1.654
    Ort:
    In der Nähe der ehemaligen Olympiastadt Leipzig
    Zustimmungen:
    120
    Kekse:
    3.099
    Erstellt: 21.08.07   #3
    Das ist es! Danke, super!!
     
Die Seite wird geladen...

mapping