[Tabs gesucht] Californication Jam live @ Slane Castle

von Bassistenschwein, 26.10.07.

  1. Bassistenschwein

    Bassistenschwein Helpful & Friendly User HFU

    Im Board seit:
    24.04.05
    Zuletzt hier:
    15.10.16
    Beiträge:
    1.555
    Zustimmungen:
    115
    Kekse:
    5.242
    Erstellt: 26.10.07   #1
    Hi
    Ich suche korrekte, vollständige Tabs zu diesem Jam vor Californication live in Slane. Ich hab leider kein GP, also möglichst im Textformat, evtl mit Taktangaben und Notenwerten drüber. Noten wären mir noch lieber, falls jemand welche hat, da ich es mir sowieso in Notenform übertragen würde...aber man kann wohl nicht alles haben.
    ;)
     
  2. Boerx

    Boerx Helpful & Friendly User HFU

    Im Board seit:
    07.08.05
    Zuletzt hier:
    5.12.16
    Beiträge:
    3.174
    Ort:
    Karlsruhe
    Zustimmungen:
    383
    Kekse:
    14.712
    Erstellt: 26.10.07   #2
    Huhu,

    ich kann dir leider nicht mit Tabs dienen. Allerdings erschließt sich mir der Sinn auch nicht. Wieso willst du Tabs (also feste Noten) zu einem Jam (also spontaner Improvisation). Das passt nicht wirklikch ganz zusammen. Macht es nicht mehr Sinn, dass du dir einfach mal ein bisschen anschaust was die spielen, dann dir die verwendeten Skalen anschaust und mal selber probierst?

    Gruß
     
  3. Bassistenschwein

    Bassistenschwein Threadersteller Helpful & Friendly User HFU

    Im Board seit:
    24.04.05
    Zuletzt hier:
    15.10.16
    Beiträge:
    1.555
    Zustimmungen:
    115
    Kekse:
    5.242
    Erstellt: 26.10.07   #3
    kennst du den jam? der ist nicht so einfach rauszuhören, ich habs schon versucht komme aber nicht wirklich weiter und suche deshalb möglichst korrekte tabs, weil die die ich im Internet finde irgendwie nicht viel helfen.
    hier nochmal das youtube video: http://www.youtube.com/watch?v=abrKM1Z_te8
     
  4. Boerx

    Boerx Helpful & Friendly User HFU

    Im Board seit:
    07.08.05
    Zuletzt hier:
    5.12.16
    Beiträge:
    3.174
    Ort:
    Karlsruhe
    Zustimmungen:
    383
    Kekse:
    14.712
    Erstellt: 26.10.07   #4
    Es geht ja nicht drum ihn rauszuhöhren. Das macht nicht wirklich viel Sinn bei einem Jam. Jammed selber, ihr könnt euch ja durchaus mal an dem was die spielen orientieren. Aber ein Jam ist spontan, entsteht und entwickelt sich auf der Bühne. Das muss man üben. Einfach das Zeug heraushören ist imho nicht so ideal
     
  5. Bassistenschwein

    Bassistenschwein Threadersteller Helpful & Friendly User HFU

    Im Board seit:
    24.04.05
    Zuletzt hier:
    15.10.16
    Beiträge:
    1.555
    Zustimmungen:
    115
    Kekse:
    5.242
    Erstellt: 26.10.07   #5
    ich bin kein anfänger, ich hab kein problem mit spontanem jammen und will das jetzt auch ehrlich gesagt nicht diskutieren. ich suche einfach nur die tabs von DIESEM Intro. auch einfach um sie zu analysieren und mich daran orientieren zu können.
    also: wenn irgendjemand die tabs auf dem rechner hat, immer her ;).
     
  6. Boerx

    Boerx Helpful & Friendly User HFU

    Im Board seit:
    07.08.05
    Zuletzt hier:
    5.12.16
    Beiträge:
    3.174
    Ort:
    Karlsruhe
    Zustimmungen:
    383
    Kekse:
    14.712
    Erstellt: 26.10.07   #6
    ;-) OK, Sorry. War ja nur nen Vorschlag verbunden mit der Vermutung, dass sowas schwer zu finden sein wird. Nicht falsch verstehen
     
  7. Ryknow

    Ryknow Registrierter Benutzer

    Im Board seit:
    18.01.06
    Zuletzt hier:
    18.08.15
    Beiträge:
    4.640
    Ort:
    Zuhause
    Zustimmungen:
    730
    Kekse:
    10.700
    Erstellt: 26.10.07   #7
    taddaaaa

    Band: Red Hot Chili Peppers
    Song: Precaliff
    Album: Live at Slane Castle DVD
    Tabbed by: Ryan Dewsbury

    This is Played just before Californication:
    |14----14----14------17-------17---------|14----14----14---171614---
    |---14----14---14-15----15-14----15-14-15|---14----14---14-------14-
    |----------------------------------------|--------------------------
    |----------------------------------------|--------------------------

    -171614--171614--171614--|14----14----14---1917161716--16--------------
    -------14------14------14|---14----14---14-----------19--19171917171617
    -------------------------|---------------------------------------------
    -------------------------|---------------------------------------------

    |14----------14----------17-15-14---------------17-15-14------------17|
    |---14-15-14----14-15-14----------17-15-17-15-17---------17-15-15-17--|
    |---------------------------------------------------------------------|
    |---------------------------------------------------------------------|

    -21-19-17-19-17----17----------------|
    ----------------21----21-19-21-19-17-|<<(x2)
    -------------------------------------|
    -------------------------------------|

    -21-19-17-19-17-19-21-19-21-22-21-22-((22-22-21-21 x7)-19-19-21-x2)-|
    --------------------------------------------------------------------|
    --------------------------------------------------------------------|
    --------------------------------------------------------------------|

    ------------141415151717-171715151414------------|
    141415151717-------------------------171715151414|<<(x2)
    -------------------------------------------------|
    -------------------------------------------------|

    ---------------------------------------------------|
    -14-15-17-15-14-12-14-12---------------------------|
    -------------------------0-10-12-0-7-9-0-5-7-0-3-5-|
    ---------------------------------------------------|

    -----------------------------------------|
    -----------------------------------------|
    -3-1-------3-1-------3-1-------3-1-------|
    -----3-1/3-----3-1/3-----3-1/3-----3-1/3-|

    ------------------------------------
    -7-7-77-9-99-999-7-7-77-9-99-101010-
    ------------------------------------
    ------------------------------------

    -----------------------------------------
    -777799991010101099997777991010997791097-
    -----------------------------------------
    -----------------------------------------

    -----779910109977-------------10101212131312121010---------
    -7799------------9977-10101212--------------------12121010-
    -----------------------------------------------------------
    -----------------------------------------------------------

    ---------12121414151514141212--------------------14141517151715171517-
    -12121414--------------------14141212141415151717---------------------
    ----------------------------------------------------------------------
    ----------------------------------------------------------------------

    ---------------------------------- 14141515-(17171717)-|
    --------------------1212141415151717------------^------|
    -------------1212144----------------------------|------|
    -(12-x20)1414--------------------------------fade out--|

     
Die Seite wird geladen...

mapping