Tabs zu diesem Klavierstück

von makrele, 06.09.06.

  1. makrele

    makrele Registrierter Benutzer

    Im Board seit:
    16.04.06
    Zuletzt hier:
    5.11.11
    Beiträge:
    106
    Ort:
    Schlins in Vorarlberg
    Zustimmungen:
    3
    Kekse:
    69
    Erstellt: 06.09.06   #1
    hi

    Ich suche Tabs zu diesem Klavierstück für die Gitarre.
    Gemeint ist die Stelle ab 13:29

    YouTube - Zelda and Final Fantasy piano Medley


    Laut Youtube müsste das Lied Amelie Poulain - Comptine d'un autre été heißen, hab aber nix gefunden dazu und raushören ist ned grad so meine stärke.

    Aber danke schonmal.
     
  2. Harlequin

    Harlequin Helpful & Friendly User HFU

    Im Board seit:
    07.10.03
    Zuletzt hier:
    23.02.14
    Beiträge:
    6.218
    Zustimmungen:
    13
    Kekse:
    5.942
    Erstellt: 06.09.06   #2
    Edit: Zu voreilig....
     
  3. No Mercy

    No Mercy Registrierter Benutzer

    Im Board seit:
    15.06.06
    Zuletzt hier:
    16.10.16
    Beiträge:
    1.569
    Zustimmungen:
    139
    Kekse:
    4.298
    Erstellt: 06.09.06   #3
    Jo das ist aus diesem Flim "Die fabelhafte Welt der Amélie". Zum Stück hab ich leider nix gefunden.
     
  4. Lofyr

    Lofyr Registrierter Benutzer

    Im Board seit:
    23.02.05
    Zuletzt hier:
    25.12.14
    Beiträge:
    26
    Zustimmungen:
    3
    Kekse:
    60
    Erstellt: 06.09.06   #4
    Das Problem bei diesem Stück ist, dass die die Tonlage zu hoch ist um es auf der Gitarre zu spielen. Ich hab dir das mal in der Original Fassung angehängt.
    Du kannst ja wenn du willst, das Stück eine Oktave runter transponieren, allerdings klingt das meiner Meinung nicht mehr.
     

    Anhänge:

  5. makrele

    makrele Threadersteller Registrierter Benutzer

    Im Board seit:
    16.04.06
    Zuletzt hier:
    5.11.11
    Beiträge:
    106
    Ort:
    Schlins in Vorarlberg
    Zustimmungen:
    3
    Kekse:
    69
    Erstellt: 06.09.06   #5
    ok danke erstmal
    hab nur leider kein guitar pro :(
     
  6. makrele

    makrele Threadersteller Registrierter Benutzer

    Im Board seit:
    16.04.06
    Zuletzt hier:
    5.11.11
    Beiträge:
    106
    Ort:
    Schlins in Vorarlberg
    Zustimmungen:
    3
    Kekse:
    69
    Erstellt: 07.09.06   #6
    @ Lofyr

    Hast du das Tab nur als Guitar Pro oder könntest dus mir als normale Textdatei schicken?
    Wär echt super würd das Lied echt gern spieln von mir aus auch ne Oktave tiefer.

    Würdest auch ne gute Bewertung kriegen :p
     
  7. makrele

    makrele Threadersteller Registrierter Benutzer

    Im Board seit:
    16.04.06
    Zuletzt hier:
    5.11.11
    Beiträge:
    106
    Ort:
    Schlins in Vorarlberg
    Zustimmungen:
    3
    Kekse:
    69
    Erstellt: 07.09.06   #7
    so hab jetzt was gefunden werds gleich mal ausprobieren:

    Rythm guitar:

    E||-0----0----0----0---|--------------------|
    H||---0----0----0----0-|-3----3----3----3---|
    G||------0---------0---|---4----4----4----4-|
    D||-2---------2--------|-0----5----0----5---|
    A||--------------------|--------------------|
    E||--------------------|--------------------|

    E||--------------------|--------------------|
    H||-3----3----3----3---|-3----3----3----3---|
    G||---4----4----4----4-|---2----2----2----2-|
    D||-0----4----0----4---|-0----4----0----4---|
    A||--------------------|--------------------|
    E||--------------------|--------------------|

    Solo guitar:

    E||------------|------------|------------|------
    H||------0/1/0-|------------|------0/1/0-|------
    G||------------|------0h2-0-|------------|------
    D||-5/4/5------|-4/5/4------|-4/2/4------|-4/2/4
    A||------------|------------|------------|------
    E||------------|------------|------------|------

    E||-0--|-----2---|-2---|-3-0-|-3---|-2---|-2---|
    H||--0-|-3-0—--0-|-----|-0---|-0-3-|-0-3-|---3-|
    G||----|---------|---2-|---0-|---0-|---4-|-2-4-|
    D||----|---------|-----|-----|-----|-----|-----|
    A||----|---------|-----|-----|-----|-----|-----|
    E||----|---------|-----|-----|-----|-----|-----|

    E||---------------------|----------------------|
    H||---7---7---7---------|---7---7---7----------|
    G||--5---5---5----5—--5-|----------------------|
    D||-4---4---4---4-—-5---|--7---7---7----7---7--|
    A||---------------------|-9---9---9---9---7----|
    E||---------------------|----------------------|

    E||---2---2---2---------|----------------------|
    H||--0---0---0----0---0-|---5---5---5----------|
    G||-----------------0---|--3---3---3-----3—--3-|
    D||-4---4---4---4-------|-2---2---2----2-—-3---|
    A||---------------------|----------------------|
    E||---------------------|----------------------|

    E||---------------------|----------------------|
    H||---7---7---7---------|---7---7---7----------|
    G||--5---5---5----5—--5-|----------------------|
    D||-4---4---4---4-—-5---|--7---7---7----7---7--|
    A||---------------------|-9---9---9---9---7----|
    E||---------------------|----------------------|

    E||---2---2---2---------|------------------|
    H||--0---0---0----0---0-|---5---5---5---5--|
    G||-----------------0---|--3---3---3---3—--|
    D||-4---4---4---4-------|-2---2---2---2-—--|
    A||---------------------|------------------|
    E||---------------------|------------------|


    E||------7/8/7-|------3/5/3-|------7/8/7-|------
    H||-8/7/8------|-7/8/7------|-7/5/5------|-7/5/7
    G||------------|------------|------------|------
    D||------------|------------|------------|------
    A||------------|------------|------------|------
    E||------------|------------|------------|------
     
  8. Lofyr

    Lofyr Registrierter Benutzer

    Im Board seit:
    23.02.05
    Zuletzt hier:
    25.12.14
    Beiträge:
    26
    Zustimmungen:
    3
    Kekse:
    60
    Erstellt: 07.09.06   #8
    Also der Rythmus Teil stimmt schonmal, jedenfalls spiele ich da dieselben Töne.
    Ob der andere Teil stimmt weiß ich nicht, wäre mir jetzt auch zu umständlich das alles zu vergleichen; Aber ich packe mal eine pdf - Datei in den Anhang mit der anderen Stimme.
    Da wo Oktave höher steht hab ich einfach alle Töne eine Oktave tiefer gemacht und die Anordnung auf dem Griffbrett ein wenig verbessert.
    Ich hoffe du hast keine Probleme den 20 ten Bund zu erreichen.

    viel Spass :p
     

    Anhänge:

  9. makrele

    makrele Threadersteller Registrierter Benutzer

    Im Board seit:
    16.04.06
    Zuletzt hier:
    5.11.11
    Beiträge:
    106
    Ort:
    Schlins in Vorarlberg
    Zustimmungen:
    3
    Kekse:
    69
    Erstellt: 07.09.06   #9
    Wow danke hast mir sehr geholfen :great:
     
Die Seite wird geladen...

mapping