Teil von Master of Puppetz

  • Ersteller Irencius
  • Erstellt am
I
Irencius
Registrierter Benutzer
Zuletzt hier
11.02.10
Registriert
25.08.03
Beiträge
39
Kekse
0
Hi,

hab mal ne Frage zu dem Metallica Song Master of Puppetz. Da gibt's ja diesen Mittelteil, wo es sich eher "klassisch" anhört und dabei gibt das hier(siehe unten tab), und ich weiß beim besten Willen nicht wie man so was greifen soll. Das sieht für mich total unhandlich aus bzw. hört sich auf der Gitarre auch nicht wirklich toll an(wenn man's den hinbekommt). Das Tab scheint aber das beste zu sein, was es im I-Net gibt. Spielen das Kirk und James wirklich so? Bitte:

(James & Kirk)
-----19/22--19--------20---17-------------------20---17-------|
-20---------20---20---22---19---19---19-19-19---22---19---19--|
-21--------------21-------------19---19-19-19-------------19--|
--------------------------------------------------------------|
--------------------------------------------------------------|
--------------------------------------------------------------|

-19---15-------------------19---15--------17---15h17p15-14-------|
-20---17---17---17-17-17---20---17---17---19---17h19p17-16---17--|
-----------17---17-17-17-------------17----------------------17--|
-----------------------------------------------------------------|
-----------------------------------------------------------------|
-----------------------------------------------------------------|




-----------14-------14---16---17---19--|
-16---17--------17--16---17---19---20--|
-16---17--/19---17---------------------|
---------------------------------------|
---------------------------------------|
---------------------------------------|


Danke für jeden Tip!
 
Eigenschaft
 
P
Pelztier
Registrierter Benutzer
Zuletzt hier
03.05.11
Registriert
19.08.03
Beiträge
191
Kekse
17
Ort
Deidesheim
Hi also ich hab die originaltabs und das stimmt, das musst du zweistimmig spielen, sprich jeweils ein gitarrist spielt die unteren der anderen die oberen, ich hoff das is verständlich alos bie

e---21
h---19
 
P
Pelztier
Registrierter Benutzer
Zuletzt hier
03.05.11
Registriert
19.08.03
Beiträge
191
Kekse
17
Ort
Deidesheim
Hi also ich hab die originaltabs und das stimmt, das musst du zweistimmig spielen, sprich jeweils ein gitarrist spielt die unteren der anderen die oberen, ich hoff das is verständlich alos bie

e---21
h---19

speilt der eine den 21 der andere den 19 ...
 
I
InFlame
Registrierter Benutzer
Zuletzt hier
08.09.10
Registriert
22.08.03
Beiträge
1.824
Kekse
0
du musst da garnichts 2-stimmig spielen ..
James spielt eine Melodie auf Dur und Kirk spielt die paralelle Moll-melodie dazu ..
 
RAGMAN
RAGMAN
Mod Emeritus - Gitarren
Ex-Moderator
Zuletzt hier
22.10.17
Registriert
19.08.03
Beiträge
5.402
Kekse
2.528
Ort
zu Hause...
@InFlame

also doch zweistimmig! Was die erste und zweite spielt ist da erstmal nebensächlich....


RAGMAN
 
I
InFlame
Registrierter Benutzer
Zuletzt hier
08.09.10
Registriert
22.08.03
Beiträge
1.824
Kekse
0
RAGMAN schrieb:
@InFlame

also doch zweistimmig! Was die erste und zweite spielt ist da erstmal nebensächlich....


RAGMAN

ja es is shcon 2stimmig keine frage .. aber wenn man beide Melodien spielt wird das etwas kompliziert ..deswegen lieber zuu zweit .. da gibts keinen stress und es klingt genauso gut wenn nicht besser ;)
 
RAGMAN
RAGMAN
Mod Emeritus - Gitarren
Ex-Moderator
Zuletzt hier
22.10.17
Registriert
19.08.03
Beiträge
5.402
Kekse
2.528
Ort
zu Hause...
(James & Kirk)
-----19/22--19--------20---17-------------------20---17-------|
-20---------20---20---22---19---19---19-19-19---22---19---19--|
-21--------------21-------------19---19-19-19-------------19--|
--------------------------------------------------------------|
--------------------------------------------------------------|
--------------------------------------------------------------|


und ich habe mich immer gefragt warum "James & Kirk" extra darüber geschrieben steht.... :D Ich dacht immer einer spielt und der andere schaut zu... ;)
 
I
InFlame
Registrierter Benutzer
Zuletzt hier
08.09.10
Registriert
22.08.03
Beiträge
1.824
Kekse
0
@ RAGMAN

ja schon klar .. aber ich denke der Threaderöffner hat geglaubt er muss das irgendwie alleine meistern ..(beide linien) :)
 
I
Irencius
Registrierter Benutzer
Zuletzt hier
11.02.10
Registriert
25.08.03
Beiträge
39
Kekse
0
Ja hat er auch ;)

Danke für eure Antworten! Werde dann mal en bischen üben.
 

Ähnliche Themen


Neue Themen

Unser weiteres Online-Angebot:
Bassic.de · Deejayforum.de · Sequencer.de · Clavio.de · Guitarworld.de · Recording.de

Musiker-Board Logo
Oben