2 Saiten spielen?

von bass clef, 13.02.06.

  1. bass clef

    bass clef Registrierter Benutzer

    Im Board seit:
    06.11.05
    Zuletzt hier:
    26.03.07
    Beiträge:
    31
    Zustimmungen:
    0
    Kekse:
    10
    Erstellt: 13.02.06   #1
    Hi,

    als Anfänger frage ich mich bei diesem Tab,

    |-------|-----------------|-------------------|-----------------|--------------------|
    |-------|-----------------|-------------------|-----------------|--------------------|
    |-5-----|-----------------|-----------------5-|-----------------|-------------5------|
    |---7-5-|-0-0-0-0-0-0-0-0-|-0-0-0-0-0-0-5-7---|-0-0-0-0-0-0-0-0-|-0-0-0-0-0-0---7-5--|
    4 + a 1 + 2 + 3 + 4 + a

    ob ich im 2. Takt die a- und die e-Seite gleichzeitig spielen muss. Kann jemand helfen?

    danke vorab

    bc
     
  2. KingNothing`

    KingNothing` Registrierter Benutzer

    Im Board seit:
    18.01.05
    Zuletzt hier:
    23.02.15
    Beiträge:
    455
    Zustimmungen:
    0
    Kekse:
    139
    Erstellt: 13.02.06   #2
    so wie es da notiert ist, ja.
    nutz mal die suchfunktion mit dem begriff double-stops, da findest einiges, kann mich auch an nen sehr guten justchords link erinnern.
     
  3. Oliver_

    Oliver_ Registrierter Benutzer

    Im Board seit:
    15.04.05
    Zuletzt hier:
    23.11.16
    Beiträge:
    2.755
    Ort:
    Frankfurt am Main
    Zustimmungen:
    72
    Kekse:
    2.836
    Erstellt: 13.02.06   #3
    Code:
    |-------|-----------------|-------------------|-----------------|--------------------|
    |-------|-----------------|-------------------|-----------------|--------------------|
    |-5-----|-----------------|-----------------5-|-----------------|-------------5------|
    |---7-5-|-0-0-0-0-0-0-0-0-|-0-0-0-0-0-0-5-7---|-0-0-0-0-0-0-0-0-|-0-0-0-0-0-0---7-5--|
    Hm, was denn gleichzeitig spielen?
     
  4. Exciter

    Exciter Registrierter Benutzer

    Im Board seit:
    22.08.03
    Zuletzt hier:
    18.07.10
    Beiträge:
    1.318
    Zustimmungen:
    2
    Kekse:
    1.466
    Erstellt: 13.02.06   #4
    Also wenn ich mir das mal per Code-Tag in Reih und Glied angucke... wo issen da ein Doublestop?

    Code:
    |-------|-----------------|-------------------|-----------------|--------------------|
    |-------|-----------------|-------------------|-----------------|--------------------|
    |-5-----|-----------------|-----------------5-|-----------------|-------------5------|
    |---7-5-|-0-0-0-0-0-0-0-0-|-0-0-0-0-0-0-5-7---|-0-0-0-0-0-0-0-0-|-0-0-0-0-0-0---7-5--|
      4 + a                     1 + 2 + 3 + 4 + a
    
    Edit: Tja, da war er schneller ;)
     
  5. bass clef

    bass clef Threadersteller Registrierter Benutzer

    Im Board seit:
    06.11.05
    Zuletzt hier:
    26.03.07
    Beiträge:
    31
    Zustimmungen:
    0
    Kekse:
    10
    Erstellt: 13.02.06   #5
    stimmt - so gesehen. Danke dafür.
     
  6. KingNothing`

    KingNothing` Registrierter Benutzer

    Im Board seit:
    18.01.05
    Zuletzt hier:
    23.02.15
    Beiträge:
    455
    Zustimmungen:
    0
    Kekse:
    139
    Erstellt: 13.02.06   #6
    dann is da aber n nicht notierter taktwechsel drin...
     
  7. Zack ab!

    Zack ab! Registrierter Benutzer

    Im Board seit:
    12.12.04
    Zuletzt hier:
    9.05.15
    Beiträge:
    793
    Zustimmungen:
    1
    Kekse:
    909
    Erstellt: 13.02.06   #7
    Oder die letzten beiden sind einfach 16-tel...:rolleyes:
    So wie es auch durch das + und das a verdeutlicht wird.
     
  8. bass clef

    bass clef Threadersteller Registrierter Benutzer

    Im Board seit:
    06.11.05
    Zuletzt hier:
    26.03.07
    Beiträge:
    31
    Zustimmungen:
    0
    Kekse:
    10
    Erstellt: 13.02.06   #8
    Hi,

    soeben ist in einer Antwort der Begriff Code-Tag zum Bereinigen von Tabs gefallen. Was ist das?

    Ein Editor, mit dem sich schnell Tabs korrigieren lassen? Und wenn ja, wo gibt´s denn den?

    Danke
    bc
     
  9. Oliver_

    Oliver_ Registrierter Benutzer

    Im Board seit:
    15.04.05
    Zuletzt hier:
    23.11.16
    Beiträge:
    2.755
    Ort:
    Frankfurt am Main
    Zustimmungen:
    72
    Kekse:
    2.836
    Erstellt: 13.02.06   #9
    Klick einfach im Beitrag-Editor auf das Raute-Symbol bei den Icons über dem Eingabefeld. Das hilft, wie du siehst, bei der Darstellung von Tabs. Öffne einfach mal deinen Windows Editor oder stell dein Word auf den Font 'Courier New' und staune ;)
     
  10. Gnomine

    Gnomine Mod Emeritus Ex-Moderator

    Im Board seit:
    21.09.04
    Zuletzt hier:
    19.08.16
    Beiträge:
    1.344
    Ort:
    8. Kontinent
    Zustimmungen:
    1
    Kekse:
    3.056
    Erstellt: 13.02.06   #10
    Konntest du jetzt wohl nicht wissen, aber manchmal kann man eine Frage auch direkt im Thread stellen (hab ich zusammengelegt), ansonsten wäre das mal das falsche Subforum gewesen, die Frage ist nicht spezifisch für Tab/Spieltechnik, der code hilft nur in diesem Fall, dass die Tabs auch hier korrekt dargestellt werden. ;)

    tag

    code tag
     
Die Seite wird geladen...

mapping