Tonleitern

  • Ersteller 101010-fender
  • Erstellt am
101010-fender
101010-fender
Registrierter Benutzer
Zuletzt hier
02.10.12
Registriert
20.08.03
Beiträge
1.569
Kekse
1.920
Moin moin,

ich hätte mal ne Frage bezüglich Tonleitern unzwar:
Wenn man z.B. so eine Tonleiter hochsteigt :

E----------------------------------
H----------------------------------
G----------------------------------
D-----------------------------5--5-
A---------------5--5--5--8--8--8--
E---5-8--5-8--8--8----------------- etc.

Muss man bei dem Sprung von E nach A bzw. A nach D Hammer-Ons machen oder gibts da Alternativen ?
 
Eigenschaft
 
Axl
Axl
Registrierter Benutzer
Zuletzt hier
25.09.09
Registriert
23.08.03
Beiträge
822
Kekse
103
Ort
Bäch
E----------------------------------
H----------------------------------
G----------------------------------
D--------------------------5--5-
A--------------5--5--5--8--8--8--
E---5-8--5-8--8--8---------------

sollte das nicht so aussehen?
 
M
moo
Registrierter Benutzer
Zuletzt hier
07.04.08
Registriert
20.08.03
Beiträge
516
Kekse
41
hetfield-rg schrieb:
Moin moin,

ich hätte mal ne Frage bezüglich Tonleitern unzwar:
Wenn man z.B. so eine Tonleiter hochsteigt :

E----------------------------------
H----------------------------------
G----------------------------------
D-----------------------------5--5-
A---------------5--5--5--8--8--8--
E---5-8--5-8--8--8----------------- etc.

Muss man bei dem Sprung von E nach A bzw. A nach D Hammer-Ons machen oder gibts da Alternativen ?

?
...mach was du willst, das ist keine Tonleiter. Was willst du genau wissen?
 
101010-fender
101010-fender
Registrierter Benutzer
Zuletzt hier
02.10.12
Registriert
20.08.03
Beiträge
1.569
Kekse
1.920
Vielleicht hab ich mich etwas verschrieben :D . Ich will wissen wie man solche Sachen wie ich oben beschrieben habe spielt, das kommt so ähnlich im Seek and Destory Solo vor, am besten spielt ihr es kurz nach dann wisst ihr was ich meine :D .
 
M
moo
Registrierter Benutzer
Zuletzt hier
07.04.08
Registriert
20.08.03
Beiträge
516
Kekse
41
hetfield-rg schrieb:
Vielleicht hab ich mich etwas verschrieben :D . Ich will wissen wie man solche Sachen wie ich oben beschrieben habe spielt, das kommt so ähnlich im Seek and Destory Solo vor, am besten spielt ihr es kurz nach dann wisst ihr was ich meine :D .

die 5-8 auf jeder Saite kannst du mit HO/PO spielen, wie's dir besser klingt, beim Sprung von einer Saite auf die andere kannst du die nicht anwenden, spielt man bei sowas meistens mit Wechselschlag (dein Stueck kenn ich nicht um dir zu sagen wie es die Jungs spielen)
 
roastbeef
roastbeef
Registrierter Benutzer
Zuletzt hier
25.07.16
Registriert
30.11.03
Beiträge
3.403
Kekse
4.078
Ort
Graz
poste doch mal pls die tabs wo das drinn vorkommt. kann das solo auch aber das kommt mir nicht bekannt vor.
 

Ähnliche Themen


Neue Themen

Unser weiteres Online-Angebot:
Bassic.de · Deejayforum.de · Sequencer.de · Clavio.de · Guitarworld.de · Recording.de

Musiker-Board Logo
Oben