Warm up licks!

von MAS01, 22.05.04.

  1. MAS01

    MAS01 Registrierter Benutzer

    Im Board seit:
    02.11.03
    Zuletzt hier:
    22.05.12
    Beiträge:
    245
    Zustimmungen:
    0
    Kekse:
    10
    Erstellt: 22.05.04   #1
    Hy!

    Hat mir jemand ein paar gute Warmup Licks und ein paar dehnübungen oder ein paar Links dafür hab zwar schon im Forum gesucht aber keine konkreten Licks oder Dehnübungen gefunden.

    greez

    Mas01
     
  2. Runner

    Runner Registrierter Benutzer

    Im Board seit:
    23.08.03
    Zuletzt hier:
    22.11.15
    Beiträge:
    296
    Ort:
    Bielefeld
    Zustimmungen:
    10
    Kekse:
    419
    Erstellt: 22.05.04   #2
  3. Solo.Machine

    Solo.Machine Registrierter Benutzer

    Im Board seit:
    16.03.04
    Zuletzt hier:
    21.11.05
    Beiträge:
    959
    Ort:
    Karben
    Zustimmungen:
    2
    Kekse:
    10
    Erstellt: 22.05.04   #3
    link geht net
     
  4. lerche

    lerche Registrierter Benutzer

    Im Board seit:
    03.03.04
    Zuletzt hier:
    5.11.06
    Beiträge:
    629
    Zustimmungen:
    0
    Kekse:
    10
    Erstellt: 22.05.04   #4
    -0-1-2-3-4/5-4-3-2/3-4-5-6/7-6-5-4------------
    ------------------------------------------------
    ------------------------------------------------
    ------------------------------------------------
    ------------------------------------------------
    ------------------------------------------------

    Sowas auf allen saiten, bis zum 12. Bund immer mit Wechselschlag spielen, gleichbleibendes tempo, is klar...Fingersatz is nat. auch wichtig.
     
  5. MAS01

    MAS01 Threadersteller Registrierter Benutzer

    Im Board seit:
    02.11.03
    Zuletzt hier:
    22.05.12
    Beiträge:
    245
    Zustimmungen:
    0
    Kekse:
    10
    Erstellt: 22.05.04   #5
    okay danke!

    Greez

    Mas01
     
  6. Hans_3

    Hans_3 High Competence Award HCA

    Im Board seit:
    09.11.03
    Beiträge:
    16.150
    Zustimmungen:
    1.124
    Kekse:
    49.622
    Erstellt: 23.05.04   #6
    Je mit: 1 Anschlag pro Note / Zwei Anchläge / drei / vier /sechs

    0-1-2-3-/ 1-2-3-4-/ 2-3-4-5-usw.

    15-14-13-12/14-13-12-11/13-12-11-10 usw.

    3-2-1-0/4-3-2-1/5-4-3-2 usw.

    nur mit Mittel-, Ring und kleinem Finger

    1-2-3-------------
    1-2-3-------------
    1-2-3-------------
    1-2-3-------------
    1-2-3-------------
    1-2-3-------------


    3-2-1-------------
    3-2-1-------------
    3-2-1-------------
    3-2-1-------------
    3-2-1-------------
    3-2-1-------------

    ------1-2-------------3-
    ----2-----3---------4-
    --3---------4-----5---
    4-------------5-6--
    ------------------
    ----------------

    usw.


    ------------------------------------0-7-10--------
    -----------------------------0-6-9-------
    ---------------------0-4-7-----------
    --------------0-3-6------------------
    -------0-2-5-------------------------
    0-1-4--------------------------------

    und zurück


    Auf allen Saiten
    10-12-13-15-13-12-10

    Tremolo-Picking
    12-12-12-12-12-12-12-12-11-11-11-11-11-11-11-11-usw.
     
Die Seite wird geladen...

mapping