Was spielt er hier (Video)

von DamnDude, 19.01.08.

  1. DamnDude

    DamnDude Registrierter Benutzer

    Im Board seit:
    07.07.07
    Zuletzt hier:
    30.07.09
    Beiträge:
    95
    Ort:
    Duisburg
    Zustimmungen:
    0
    Kekse:
    47
    Erstellt: 19.01.08   #1
    Hi

    Also, dass das ganze vom El Mariachi/Desperado/Irgendwann in Mexiko Soundtrack ist, weiss ich. Aber es ist eine andere Version glaube ich Oo Naja bin mir nicht so sicher. Auf jeden würd ichs liebend gern nachspielen :)

    Hier das Video:
    http://www.youtube.com/watch?v=QesMQ98zR1I

    Meine Frage: Hat da jemand Tabs zu? Oder zumindest zu der Melodie (Also nicht die Akkorde). Oder anders: Das ist evtl. ja garnicht zu schwer, für einige gute spieler hier, das zu Tabben ;)

    THX Schonmal im vorraus, ich hoffe auf Hilfe
     
  2. nova

    nova Registrierter Benutzer

    Im Board seit:
    20.05.06
    Zuletzt hier:
    1.10.15
    Beiträge:
    230
    Ort:
    Duisburg
    Zustimmungen:
    5
    Kekse:
    159
    Erstellt: 20.01.08   #2
    er spielt den soudntrack von "Once Upon A Time in Mexico"...antonio banderas geht mit enrique iglesias und seinem freund die straße herunter und er spielt dieses lied, nachdem der president zurückgefahren ist. akkorde sind: Am , Dm , C , E (es varriert oft)
     
  3. DamnDude

    DamnDude Threadersteller Registrierter Benutzer

    Im Board seit:
    07.07.07
    Zuletzt hier:
    30.07.09
    Beiträge:
    95
    Ort:
    Duisburg
    Zustimmungen:
    0
    Kekse:
    47
    Erstellt: 20.01.08   #3
    Okay, danke =)
    jetzt weiss ich genau welches lied es ist, aber tabs habe ich trotzdem nicht gefunden =(

    also zu der einsetzenden melodie mein ich
     
  4. Maxi

    Maxi Registrierter Benutzer

    Im Board seit:
    04.09.05
    Zuletzt hier:
    4.12.16
    Beiträge:
    3.849
    Zustimmungen:
    350
    Kekse:
    5.099
    Erstellt: 20.01.08   #4
    lol steht doch alles in der video beschreibung !!!
    - also manchmal...
     
  5. DamnDude

    DamnDude Threadersteller Registrierter Benutzer

    Im Board seit:
    07.07.07
    Zuletzt hier:
    30.07.09
    Beiträge:
    95
    Ort:
    Duisburg
    Zustimmungen:
    0
    Kekse:
    47
    Erstellt: 20.01.08   #5
    Vllt hab ichs ned ausführlich genug erklärt, sorry
    die akkorde stehen bei, das hab ich gesehen.
    was ich meine ist die einsetzende melodie, welche aus einzelnen tönen besteht.
    auf dem soundtrack ist das glaube ich eine trompete
     
  6. Devi

    Devi Registrierter Benutzer

    Im Board seit:
    19.11.06
    Zuletzt hier:
    4.12.10
    Beiträge:
    115
    Zustimmungen:
    0
    Kekse:
    102
    Erstellt: 20.01.08   #6
    Sorry, eine kurze zwischenfrage:
    spielt da eine gitarre? Wenn ja: wie kann das sein, er spielt zwar nur einfache auf und abschläge aber man hört trotzdem einen verlauf wie beim fingerpicking (einzelne seiten erklingen richtig stark)
     
  7. DamnDude

    DamnDude Threadersteller Registrierter Benutzer

    Im Board seit:
    07.07.07
    Zuletzt hier:
    30.07.09
    Beiträge:
    95
    Ort:
    Duisburg
    Zustimmungen:
    0
    Kekse:
    47
    Erstellt: 20.01.08   #7
    Das hab ich mir auch schon überlegt.
    aber letztenendes geht es mir ja nur um diese melodie und die ist ja gut zu hören.
     
  8. Maxi

    Maxi Registrierter Benutzer

    Im Board seit:
    04.09.05
    Zuletzt hier:
    4.12.16
    Beiträge:
    3.849
    Zustimmungen:
    350
    Kekse:
    5.099
    Erstellt: 21.01.08   #8
    Ich möchte hier echt niemand beleidigen oder blöd anmachen - aber wer lesen kann...

    '' Do you remember that song "played" by Antonio Banderas in the movie 'Once Upon a Time in Mexico'? Well, I made some changes and there is my own version. The second guitar is also played by me. The tabs are basically Am , Dm , C , E ...
    Enjoy it! Comment it ;) ''
    Das steht neben dem video - da steht somit also wie der song heißt und was für akkorde drins sind (UND - das da eine zweite gitarre läuft die er auch gespielt hat - eben vorher oder nacher drübergespielt)! Man sollte einfach mal aufmerksamer lesen bzw - englisch können *lach*!

    Zu deiner eigentlichen frage - du hast die akkorde, tonart ist also in dem song Am - daher kannst du doch mithilfe des videos die melodie super schnell rausbekommen - du kannst ihm sogar auf die finger schauhen!

    Gruß Maxi

    *edit*
    ok ich mach mal den anfang - aber wie gesagt einfach mal aufs video schauhen und nicht andere machen lassen *g*
    ----------0---------------------------------5-------------------------------------
    ----------5---------------------------------6-------------------------------------
    ----6--6-6---------7-6-7----------7---7--7-----------/12-10-10--9-9--7-9----
    --7--7---7-----------------------7---7----7--------------------------------------
    ---------------------------------------------------------------------------------
    ---------------------------------------------------------------------------------
    ................3x.........................................2x.......das hier wegen mir auch auf der b-saite ist eigentlich egal

    mann kanns auch anders spielen - aber das ist glaub das auf dem video (ausser das der letzte lauf auf der b-saite ist!

    *edit2* mir ist schon öfter aufgefallen das leute nach dingen fragen die in der video beschreibung stehen - nicht nur hier im forum... find das irgndwie... naja ...
     
  9. DamnDude

    DamnDude Threadersteller Registrierter Benutzer

    Im Board seit:
    07.07.07
    Zuletzt hier:
    30.07.09
    Beiträge:
    95
    Ort:
    Duisburg
    Zustimmungen:
    0
    Kekse:
    47
    Erstellt: 21.01.08   #9
    Oh man oh man...
    Ne Freundin von mir hatte die Tabs.
    Sie meinte, sie hätte die von Ultimate Guitar, da hab ich aber nichts gefunden (vllt. falsch gesucht)

    Also für alle, die Interesse haben:
    Code:
    Once Upon a Time in Mexico theme
    
    E |------------------------------------------------|
    B |-----------5-----------5-----------5------------|
    G |----6---6--6----6---6--6----6---6--6--7-6-7-----|
    D |--7---7----7--7---7----7--7---7----7------------|
    A |------------------------------------------------|
    E |------------------------------------------------|
    
    E |-------------------------------------------------------|
    B |-----------6-----------6-----------6/8-8/6-6/5-5/3-5---|
    G |----7---7--7----7---7--7----7---7--7-------------------|
    D |--7---7----7--7---7----7--7---7----7-------------------|
    A |-------------------------------------------------------|
    E |-------------------------------------------------------|
    
    E |----------------------------------------------------|
    B |-----------8--------------8/10-10/8-8/6-6/5-6---8---|
    G |----9---9--9------9----9--9-------------------------|
    D |-10--10----10--10---10----10------------------------|
    A |----------------------------------------------------|
    E |----------------------------------------------------|
    
    E |------------------------------------------------------------------|
    B |-6-8--10p8------8-----------------5-------------------------------|
    G |-----------10p9---10-9/7-10p9p7-5---7p5-4-2-0---------------------|
    D |----------------------------------------------3-2--2-3-5-3h5p3-2--|
    A |------------------------------------------------------------------|
    E |------------------------------------------------------------------|
    
    E |-0h1p0---------|
    B |-------3-1-0---|
    G |---------------|
    D |---------------|
    A |---------------|
    E |---------------|
    
    (Guitar 1): Am Dm Am Dm Am E
    				(Guitar 2)  
          (Am)                       (Dm)          (Am)             (Dm)
      E |-----------------------------------------------------------------|
      B |-----------------------------------------------------------------|
      G |--9/14-(14)--14-14-12-10-9-9h10--10/12/10-9--14-14-12-10-9-9/10--|
      D |-----------------------------------------------------------------|
      A |-----------------------------------------------------------------|
      E |-----------------------------------------------------------------|
    
      E |-----------------------------------------------|
      B |-----------------------------------------------|
      G |-10/12/10-9--7/5-7-4-2-2/4/2-1-----------------|
      D |--------------------------------2h3-2-0--------|
      A |----------------------------------------3-2----|
      E |-----------------------------------------------|
    
    
    (Guitar 1): Am Dm G E
    				(Guitar 2)
          (Am)                   (Dm)          (G)           (E)
      E |--0-0-0---0-----0-0---0--1----1-1-0-1--5-3--5-3-1-0--1-0---0----|
      B |--1-----3-------1---3----3-3--3--------0----0--------0---3------|
      G |--2---------2---2--------2----2--------0----0--------1----------|
      D |--2-------------2--------0----0--------0----0--------2----------|
      A |--0-------------0--------0----0----------------------2----------|
      E |----------------------------------------------------------------|
     
Die Seite wird geladen...

mapping