Wechselschlag

Sergej
Sergej
Registrierter Benutzer
Zuletzt hier
28.09.10
Registriert
23.12.04
Beiträge
183
Kekse
0
Ort
Winsen/Luhe
Hi, ich wollte mich jetzt mal mit Auf- und Abschlägen beschäftigen und hätte dazu mal eine Frage.

Bisher spiele ich mit meinem Plek nur Abschläge. Wenn jetzt noch Aufschläge (also Wechselschlag) dazukommen, wann soll ich dann welche Schlagart benutzen? Ich hab grad beim Spielen bemerkt, dass ich praktisch alles mit Auf- und/oder Abschlägen spielen kann, wild durcheinander. Aber das kann's ja nicht sein, oder?

Gibt's da bestimmte "Regeln" wann man welche Schlagart benutzen sollte, vor allen Dingen wenn man schnell zwischen verschiedenen Saiten wechselt und auf jeder nur ein oder zwei Schläge ausübt?

MfG
Sergej
 
Eigenschaft
 
Slaughthammer
Slaughthammer
Registrierter Benutzer
Zuletzt hier
29.03.20
Registriert
03.11.04
Beiträge
1.299
Kekse
544
Ort
Leer, Ostfriesland
ich benutze generell (fast) immer wechselschlag. nur downstrokes spiele ich nur, wenn ich wirklich jeden einzelnen ton speziell betonen muss.
 
MuMan
MuMan
Registrierter Benutzer
Zuletzt hier
09.10.06
Registriert
23.08.03
Beiträge
717
Kekse
17
Ort
Fulda [Hessen]
gibts irgendwo Workshops um Wechselschlag zu üben? Wechselschlag ist bei mir nämlich schon längst überfällig, muss ich dringend mal lernen!
 
Ripping Angelflesh
Ripping Angelflesh
Registrierter Benutzer
Zuletzt hier
16.01.12
Registriert
11.12.04
Beiträge
1.494
Kekse
1.030
Ort
Bayern
In der guitar gibts ein workshop für den wechselschlag müsst sogar die jetztige ausgabe sein:great: .
 
K
Kirk Hammett
Registrierter Benutzer
Zuletzt hier
29.06.05
Registriert
28.12.04
Beiträge
18
Kekse
0
Diese übung hat mir sehr geholfen den Wechselschlag zu beherschen.


E --------------------------------------------------
H--------------------------------------------------
G------------5------5--7--8--7--5------5----------
D--5--6--8------8-------------------8-----8--6--5-
A--------------------------------------------------
E--------------------------------------------------

Das mit abschlag zu spielen war für mich immer sehr mühsamm und durch diese übung hab ich mir den Wechselschlag angeeignet - heute spiele ich nichts anderes mehr.
 
Arvir
Arvir
Registrierter Benutzer
Zuletzt hier
08.10.20
Registriert
02.10.04
Beiträge
1.122
Kekse
3.573
Die ultimative Übung um den Wechselschlag zu lernen : Das was man gerade spielt auf Wechselschlag umstellen. Mag am Anfang mühsam sein, weil man langsamer ist aber wenn du sozusagen dne Sprung ins Kalte Wasser wagst hast du nach 2-3 Tagen den Wechselschlag sicher ( ich nehme mal an du übst auch).
 
A
Ayu
Registrierter Benutzer
Zuletzt hier
10.03.05
Registriert
09.08.04
Beiträge
510
Kekse
26
Ort
Jona -> St.Gallen
Diese übung ist von "Wie schneller werde?Hier ist die Antwort"-Thread
Finde ich ziemlich gut zum Wechselschlag üben:
3) DIE PETRUCCI - FINGERÜBUNG:

(Darunter angegeben: Die Fingersätze, welche natürlich sind!)

----------------------------------------------------------------------
----------------------------------------------------------------------
----------------------------------------------------------------------
----------------------------------------7---8---9---10---------------
---------------------7---8---9---10----------------------------------
--7---8---9---10-----------------------------------------------------

1 2 3 4 1 2 3 4 1 2 3 4

----------------------------------------------------------------------
----------------------------------------------------------------------
--7---8---9---10---11---10---9---8---9---10---11---12--------------
----------------------------------------------------------------------
----------------------------------------------------------------------
----------------------------------------------------------------------

1 2 3 4 4 3 2 1 1 2 3 4

------------------------9---10---11---12---13---12---11---10-------
--9---10---11---12--------------------------------------------------
---------------------------------------------------------------------
---------------------------------------------------------------------
---------------------------------------------------------------------
---------------------------------------------------------------------

1 2 3 4 1 2 3 4 4 3 2 1

-----------------------------------------------------------------------
--13---12---11---10---------------------------------------------------
-------------------------13---12---11---10---9---10---11---12--------
-----------------------------------------------------------------------
-----------------------------------------------------------------------
-----------------------------------------------------------------------

4 3 2 1 4 3 2 1 1 2 3 4




-----------------------------------------------------------------------
-----------------------------------------------------------------------
--11---10---9---8-----------------------------------------------------
-----------------------11---10---9---8--------------------------------
--------------------------------------------11---10---9---8-----------
-----------------------------------------------------------------------

4 3 2 1 4 3 2 1 4 3 2 1

-----------------------------------------------------------------------
-----------------------------------------------------------------------
-----------------------------------------------------------------------
-----------------------------------------------------------------------
-----------------------------------------------------------------------
--11---10---9---8-----------------7-----------------------------------
 
MuMan
MuMan
Registrierter Benutzer
Zuletzt hier
09.10.06
Registriert
23.08.03
Beiträge
717
Kekse
17
Ort
Fulda [Hessen]
Danke, ich werds sofort probieren, wenn ich meine neue Box bekommen hab :great:
 
D
Deamon
Registrierter Benutzer
Zuletzt hier
22.12.07
Registriert
22.02.04
Beiträge
420
Kekse
13
Bei mir ist es eher andersrum,dass ich wenn's um das schnelle Spielen von nur Downstrokes geht meistens ein bisschen hinterherhinke.
Wechselschlag geht ohne Probleme.
 
patrice
patrice
Registrierter Benutzer
Zuletzt hier
25.09.07
Registriert
26.12.04
Beiträge
865
Kekse
378
Ort
Melchnau (CH)
Ich spiel' fast ausschliesslich noch Downstroke...
Werde mich also mal n' bisschen mit Wechselschlag befassen :)

ach ja, die Übung werd' ich auch machen!
 
kevin_frustrato
kevin_frustrato
Registrierter Benutzer
Zuletzt hier
05.06.20
Registriert
20.12.04
Beiträge
1.224
Kekse
2.050
Ort
Berlin
was glaub ich noch nicht gesagt wurde ist, das man wechselschlag und down/up strokes auch einsetzen kann um das spieltempo zu bestimmen:

zb.: 16tel noten mit wechselschlag spielen und 8tel dann je mit down/upstroke..

von petrucci gibts ein gutes lernvideo/dvd rockdisziplin, finded man bei ebay und amazon usw.. wird das thema auch gut erklärt!

und die beste möglichkeit es zu lernen, üben üben üben ;)

am besten mit einer verstärkereinstellung mit der du hört ob du unsauber spielst!

grüße

kev
 
Sergej
Sergej
Registrierter Benutzer
Zuletzt hier
28.09.10
Registriert
23.12.04
Beiträge
183
Kekse
0
Ort
Winsen/Luhe
Kirk Hammett schrieb:
Diese übung hat mir sehr geholfen den Wechselschlag zu beherschen.


E --------------------------------------------------
H--------------------------------------------------
G------------5------5--7--8--7--5------5----------
D--5--6--8------8-------------------8-----8--6--5-
A--------------------------------------------------
E--------------------------------------------------

Das mit abschlag zu spielen war für mich immer sehr mühsamm und durch diese übung hab ich mir den Wechselschlag angeeignet - heute spiele ich nichts anderes mehr.
Ich glaub, ich bin ein wenig zu doof, dass zu kapieren ;)

Also mal an Deinem Übungsbeispiel:
Wenn Wechselschlag bedeutet, dass ich immer, permanent zwischen Ab- und Aufschlag wechsle, würde das bedeuten, dass ich D5 mit Abschlag, D6 mit Aufschlag, D8 mit Abschlag und G5 mit Aufschlag spiele. Allerdings erscheint es mir logischer, G5 auch mit Abschlag zu spielen, weil es dann ja praktisch eine flüssige Bewegung nach unten ist. Versteht ihr? ;)

Oder halte ich stur das Ab/Auf-Prinzip ein?
 
Steppenwolf
Steppenwolf
Registrierter Benutzer
Zuletzt hier
25.03.08
Registriert
05.12.04
Beiträge
159
Kekse
35
Ort
Österreich
Sergej schrieb:
Oder halte ich stur das Ab/Auf-Prinzip ein?

Jop, beim Wechselschlag schon :)

Wenn du die "Schlagrichtung" an die Saitenwechsel anpasst nennt sich das afaik "Economy-Picking"

mfg Steppenwolf
 
Guitar
Guitar
Registrierter Benutzer
Zuletzt hier
12.10.05
Registriert
09.12.04
Beiträge
87
Kekse
12
Sergej schrieb:
Oder halte ich stur das Ab/Auf-Prinzip ein?

Hi Sergej

Ich halte meißtens stur das auf und ab Prinzip ein.
Bei den beispiel oben würde ich G5 mit ein aufschlag spielen, einfach deswegen weil ich zuvor D8 mit abschlag anspielen würde und durch den schwung nach unten nehm ich dann G5 mit einen aufschlag mit.
Ich weiss nicht ob es dafür eine norm gibt, irgend wie nehm ich immer den einfachsten weg, das kommt ganz automatisch, kann das auch nicht wirklich kontrolieren.

Wenn du es nach deinem beispiel besser spielen kannst, dann spiel es so, anderseits versuch es einfach mal so wie ich es spielen würde.
 
M
Metallic
Registrierter Benutzer
Zuletzt hier
12.03.05
Registriert
12.08.04
Beiträge
687
Kekse
16
Übt den Maiden Gallopp, der hats mit Wechselschlag in sich...
 
Sergej
Sergej
Registrierter Benutzer
Zuletzt hier
28.09.10
Registriert
23.12.04
Beiträge
183
Kekse
0
Ort
Winsen/Luhe
Ok, hätten wir das ja geklärt, vielen Dank.

Jetzt noch mal zwei kleine Fragen ;)

1. Kann man auch zwei oder drei Saiten (Powerchords etc.) auf einmal mit dem Wechselschlag spielen?

2. Muss ich beim Aufschlag, der auf einen Abschlag folgt, die Hand drehen? Also muss ich generell zwischen Auf- und Abschlag groß was an der Haltung verändern?
 
Slaughthammer
Slaughthammer
Registrierter Benutzer
Zuletzt hier
29.03.20
Registriert
03.11.04
Beiträge
1.299
Kekse
544
Ort
Leer, Ostfriesland
1. ja
2. nein

zu 1.: man kann das machen, klingt imho nur nicht so toll
zu 2.: du solltest beim wechselschlagen mit dem pleck nicht weiter als ca 1mm in die saiten reingehen. das hat den vorteil, dass du das pleck absolut senkrecht zu den saiten halten kannst, ohne das dich was verhakt, da du es in der anderen achse ja nicht völlig parallel zu den saiten hältst (ich weiß, das klingt verwirrend, ich weiß nur nicht, wie ichs besser erklären soll)
 
AgentOrange
AgentOrange
Mod Emeritus
Ex-Moderator
Zuletzt hier
27.06.17
Registriert
16.04.04
Beiträge
9.972
Kekse
7.858
Ort
Heidelberg
Eine gute Wechselschlagübung (und auch für die Konzentration!) ist der "Zwischenteil" aus Metallica´s (jaja, ich weiss, schon wieder ... ) For whom the bell tolls. Sieht so aus:




--------------------------------------------------
---------------------------------------------------
-12-9-11----9-11-12-9-11-----9-11-12-9-11------
----------12---------------12----------------12---
---------------------------------------------------
---------------------------------------------------


Und so weiter :) Is zwar im Prinzip einfach, aber das ganze schnell und sauber zu spielen bedarf recht hoher Konzentration und gute Koordination der Finger wenn man sich nicht andauernd verhaspeln will :)



Geübt hab ich den Wechselschlag mit ... keine Ahnung, habs ewig probiert und irgendwann gings :D
 
M
MrFair
Registrierter Benutzer
Zuletzt hier
28.02.12
Registriert
28.12.04
Beiträge
702
Kekse
807
Ihr könnt aber auch einfach die Patterns von Skalen die ihr schon könnt (z.B. Pentatonik) im Wechselschlag rauf und runter spielen und zwar immer ganz stur, egal obs jetzt Sinn macht oder nicht, chromatische Sachen (1-2-3-4) haben mir da auch geholfen.
 
Sergej
Sergej
Registrierter Benutzer
Zuletzt hier
28.09.10
Registriert
23.12.04
Beiträge
183
Kekse
0
Ort
Winsen/Luhe
Ich würde gerne meinen alten Thread nochmal hochholen, um nochmal was nachzufragen.

Mal zwei Beispiele aus Enter Sandman:

--------------------------|--------------------------|
--------------------------|--------------------------|
--------------------------|--------------------------|
--------------------------|--------------------------|
--------7-----0--------3--|--------7-----0--------3--|
--0--0-----6-----0--0--1--|--0--0-----6-----0--0--1--|


------------------------|-------------------------|
------------------------|-------------------------|
------------------------|-------------------------|
------------------------|-------------------------|
----2--7-------------5--|-------4-----4--5--4--2--|
----0-----6--5~---0--3--|----0--2--0--2--3--2--0--|


Spielt mal diese Riffs auch ganz exakt mit Wechselschlag? Ich frage, weil ja immer zwischen ein und zwei Saiten, die angeschlagen werden müssen, gewechselt wird. Gibts dann Ausnahmen, oder muss ich beim ersten Beispiel die


-----|
-----|
-----|
-----|
--3--|
--1--|


dann auch im richtigen Wechselschlag-Rhythmus mit Aufschlag spielen?
 

Ähnliche Themen


Neue Themen

Unser weiteres Online-Angebot:
Bassic.de · Deejayforum.de · Sequencer.de · Clavio.de · Guitarworld.de · Recording.de

Musiker-Board Logo
Oben