Wie greift ihr das ?


A
Andrew
Gesperrter Benutzer
Zuletzt hier
04.12.03
Registriert
19.08.03
Beiträge
242
Kekse
0
----------
----------
----------
7----7----
5-7--5-7-
--5-----5-

Wenn ihr sowas schnell spielen wollt, macht ihr es dann so, dass ich immer frisch greift oder legt ihr den Zeigefinger als Barre über das Griffbrett und verändert nur den kleinen Finger ?
 
Eigenschaft
 
H
Hiob
Registrierter Benutzer
Zuletzt hier
14.03.09
Registriert
20.08.03
Beiträge
292
Kekse
0
Ich würde es einzeln Greifen... letztendlich musst du aber ausprobieren, was dir leichter von der Hand geht...
 
St. ?tzi
St. ?tzi
Registrierter Benutzer
Zuletzt hier
19.10.06
Registriert
19.08.03
Beiträge
705
Kekse
225
Ort
Berlin
es kommt auf das Tempo und die Anzahl der Wiederholungen am, gehen tut beides
 
A
Andrew
Gesperrter Benutzer
Zuletzt hier
04.12.03
Registriert
19.08.03
Beiträge
242
Kekse
0
Hm und was wird eher verwendet ?
Ich will mir ja keinen schlechten Stil aneignen. :)
 
J
jens2901
Registrierter Benutzer
Zuletzt hier
13.02.21
Registriert
18.08.03
Beiträge
1.158
Kekse
161
ich würde, ie du, den zeigefinger drauflegen und dann den ringfinger eben immer wieder verschieben.
 
A
Andrew
Gesperrter Benutzer
Zuletzt hier
04.12.03
Registriert
19.08.03
Beiträge
242
Kekse
0
Wie spielt man denn sowas damit die beiden 11er nicht gleichzeitig klingen ?

[code:1]e:------11-------------8----8---
B:---------11--9--8-------8----8
G:------------------------------
D:------------------------------
A:------------------------------
E:------------------------------[/code:1]

Und mit welchem Finger slidet man hier am besten ?

[code:1]|----------------------------------------------------------|
|----------------------------------------------------------|
|----------------------------------------------------------|
|-2--------------------------------------------------------|
|-2--2--2--2--2--2--2--5/7---2--2--2--2--2--2--2--2--5/7---|
|-0--0--0--0--0--0--0--------0--0--0--0--0--0--0--0--------|[/code:1]
 
H
Hiob
Registrierter Benutzer
Zuletzt hier
14.03.09
Registriert
20.08.03
Beiträge
292
Kekse
0
Andrew schrieb:
Wie spielt man denn sowas damit die beiden 11er nicht gleichzeitig klingen ?

[code:1]e:------11-------------8----8---
B:---------11--9--8-------8----8
G:------------------------------
D:------------------------------
A:------------------------------
E:------------------------------[/code:1]

Enfach mit dem einem Mini Barré beide drücken und dann den Finger so weit anheben, daß die Zweite Seite nicht mehr klingt...

Andrew schrieb:
Und mit welchem Finger slidet man hier am besten ?

[code:1]|----------------------------------------------------------|
|----------------------------------------------------------|
|----------------------------------------------------------|
|-2--------------------------------------------------------|
|-2--2--2--2--2--2--2--5/7---2--2--2--2--2--2--2--2--5/7---|
|-0--0--0--0--0--0--0--------0--0--0--0--0--0--0--0--------|[/code:1]
Ich nehme den Ringfinger...ist doch Enter Sandman oder?
 
A
Andrew
Gesperrter Benutzer
Zuletzt hier
04.12.03
Registriert
19.08.03
Beiträge
242
Kekse
0
Klar ist das der Sandmann, das hört man doch. :)
 
H
Hiob
Registrierter Benutzer
Zuletzt hier
14.03.09
Registriert
20.08.03
Beiträge
292
Kekse
0
Ist aber beim 2. Mal ein Downstroke zu viel! :D
 

Ähnliche Themen


Neue Themen

Unser weiteres Online-Angebot:
Bassic.de · Deejayforum.de · Sequencer.de · Clavio.de · Guitarworld.de · Recording.de

Musiker-Board Logo
Oben