2. Gitarre?

von Marsellus, 04.12.05.

  1. Marsellus

    Marsellus Registrierter Benutzer

    Im Board seit:
    17.11.05
    Zuletzt hier:
    26.03.06
    Beiträge:
    5
    Zustimmungen:
    0
    Kekse:
    10
    Erstellt: 04.12.05   #1
    hi leute, hab da 2 fragen:

    einmal was könnte ich hierzu als 2. gitarre spielen:

    --------------------------
    --------------------------
    --------------------------
    --------------------------
    ---7----7---6---7---7---
    -5----7---7---5---4----- (ghet normal anders aber nur damit ihr die töne habt die dinge die vorkommen)

    und 2. was könnte ich hierzu noch spielen

    --------------------------
    --------------------------
    --------------------------
    -2-------------------------
    -2--3--2--2-------------------
    -0--3--3--2-------------------

    klar alles bisschen kurz aber hoffe ihr könnt was mit anfangen und mir ein paar tips geben. danke schonmal

    gruß
     
  2. Neuling

    Neuling Registrierter Benutzer

    Im Board seit:
    16.04.04
    Zuletzt hier:
    3.12.16
    Beiträge:
    1.516
    Ort:
    uʍoʇuʍopǝpısdn
    Zustimmungen:
    200
    Kekse:
    2.285
    Erstellt: 06.12.05   #2
    Willst du drüber solieren oder willst du das nochmals begleiten?
    Wenn begleiten, schrammel einfach paar Akkorde, die dazu passen, musst halt ausprobieren welche.
    Falls Solo such dir ne moll-Pentatonik die darauf passt und dudel da bissl rum.
     
Die Seite wird geladen...

mapping