Alle meine Entchen tabs

von Alice_im_wunderl, 12.06.05.

  1. Alice_im_wunderl

    Alice_im_wunderl Registrierter Benutzer

    Im Board seit:
    06.04.05
    Zuletzt hier:
    21.01.06
    Beiträge:
    38
    Ort:
    Gronig
    Zustimmungen:
    0
    Kekse:
    10
    Erstellt: 12.06.05   #1
    Moin!
    Bitte lacht mich nicht aus, aber könnte mir bitte jemand die Tabs von "Alle meine Entchen" posten?Ich find das einfach zu lustig.
    Vielen Dank als im Vorraus
    Mfg Alice_im_Wunderland
     
  2. 36 cRaZyFiSt

    36 cRaZyFiSt Registrierter Benutzer

    Im Board seit:
    21.08.04
    Zuletzt hier:
    12.10.16
    Beiträge:
    5.978
    Ort:
    Regensburg
    Zustimmungen:
    123
    Kekse:
    5.448
    Erstellt: 12.06.05   #2
    0-23-57-7-99997-99997-5555-33-7777-0

    oder so, keine Ahnung :D
     
  3. wary

    wary Registrierter Benutzer

    Im Board seit:
    30.10.03
    Zuletzt hier:
    21.04.13
    Beiträge:
    4.877
    Ort:
    Jena
    Zustimmungen:
    8
    Kekse:
    19.066
    Erstellt: 12.06.05   #3
    sei mir nicht böse, aber meinst du nicht, das du das noch selber raushören kannst? Tu dir einen Gefallen und mach es :eek:
     
  4. sw_

    sw_ Registrierter Benutzer

    Im Board seit:
    17.04.05
    Zuletzt hier:
    21.04.10
    Beiträge:
    146
    Zustimmungen:
    1
    Kekse:
    20
    Erstellt: 12.06.05   #4
    hä?
    alle meine entchen???

    na gut...
    ---------------------------------------------------------------------
    ---------------------------------------------------------------------
    ---------------------------------------------------------------------
    ---------------------------------------------------------------------
    ------------------------0-0-0-0--------------------------------------
    --------0---1-----3-3-------------3---1-1-1-1---0-0---------0-------
    --1--3-------------------------------------------------3-3-------3--1
     
  5. Little_Raven

    Little_Raven Registrierter Benutzer

    Im Board seit:
    20.08.03
    Zuletzt hier:
    28.04.10
    Beiträge:
    1.142
    Zustimmungen:
    2
    Kekse:
    1.168
    Erstellt: 12.06.05   #5
    Stehen alle solche Lieder in Cdur?

    Keine Ahnung aber ich habs gerade mal so gespielt.

    e|------------------------------------------------------------------------------------
    B|------------------------------------------------------------------------------------
    G|------------------------------------------------------------------------------------
    D|----------3-5-5---7-7-7-7-5---7-7-7-7-5---3-3-3-3-----------------------------
    A|--3-5-7-------------------------------------------------7-7---5-5-5-5-3~~~-----
    E|-------------------------------------------------------------------------------------
     
  6. ThrashMetal

    ThrashMetal Registrierter Benutzer

    Im Board seit:
    05.05.05
    Zuletzt hier:
    14.11.05
    Beiträge:
    297
    Zustimmungen:
    0
    Kekse:
    34
    Erstellt: 12.06.05   #6
    E||-----------1--3----3----|--5--5--5--5--3--------|--5--5--5--5--3--------|
    B||-----3--5---------------|-----------------------|-----------------------|
    G||--5---------------------|-----------------------|-----------------------|
    D||------------------------|-----------------------|-----------------------|
    A||------------------------|-----------------------|-----------------------|
    E||------------------------|-----------------------|-----------------------|



    --1--1--1--1------------|-----------------------||
    --------------5----5----|--3--3--3--3-----------||
    ------------------------|--------------5--------||
    ------------------------|-----------------------||
    ------------------------|-----------------------||
    ------------------------|-----------------------||
     
  7. sw_

    sw_ Registrierter Benutzer

    Im Board seit:
    17.04.05
    Zuletzt hier:
    21.04.10
    Beiträge:
    146
    Zustimmungen:
    1
    Kekse:
    20
    Erstellt: 12.06.05   #7
    *lol* das sind aber viele versionen
     
  8. Alice_im_wunderl

    Alice_im_wunderl Threadersteller Registrierter Benutzer

    Im Board seit:
    06.04.05
    Zuletzt hier:
    21.01.06
    Beiträge:
    38
    Ort:
    Gronig
    Zustimmungen:
    0
    Kekse:
    10
    Erstellt: 12.06.05   #8
    wow!so viele versionen in so kurzer zeit.ich hätte nie gedacht dass soviele die noten kennen:D.Vielen dank
    Alice_im_Wunderland
     
  9. ThrashMetal

    ThrashMetal Registrierter Benutzer

    Im Board seit:
    05.05.05
    Zuletzt hier:
    14.11.05
    Beiträge:
    297
    Zustimmungen:
    0
    Kekse:
    34
    Erstellt: 12.06.05   #9
    ich kenn noch eine ;)


    E||------------------------|-----------------------|-----------------------|
    B||------------------------|-----------------------|-----------------------|
    G||--------------0----0----|--2--2--2--2--0--------|--2--2--2--2--0--------|
    D||-----0--2--3------------|-----------------------|-----------------------|
    A||--3---------------------|-----------------------|-----------------------|
    E||------------------------|-----------------------|-----------------------|


    ------------------------|-----------------------||
    ------------------------|-----------------------||
    ------------------------|-----------------------||
    --3--3--3--3--2----2----|--0--0--0--0-----------||
    ------------------------|--------------3--------||
    ------------------------|-----------------------||
     
  10. Hans_3

    Hans_3 High Competence Award HCA

    Im Board seit:
    09.11.03
    Beiträge:
    16.149
    Zustimmungen:
    1.124
    Kekse:
    49.622
    Erstellt: 12.06.05   #10
    Solche Melodien hat man ja eigentlich im Kopf. Und was man im Koph "hört" oder summen oder singen kann, kann man auch relativ leicht bzw. mit erwas Probieren auf das Griffbrett übertragen.

    Wenn man das mit solchen einfachen Dingen schon nicht koordiniert, klebt man in 20 Jahren noch an Tabs und bekommt nicht eine einzige Improvisation hin.- Sag ich nur mal als freundliche Warnung ;)
     
  11. wary

    wary Registrierter Benutzer

    Im Board seit:
    30.10.03
    Zuletzt hier:
    21.04.13
    Beiträge:
    4.877
    Ort:
    Jena
    Zustimmungen:
    8
    Kekse:
    19.066
    Erstellt: 12.06.05   #11
    bitte was??? Noten von dem Stück kennen? Wozu braucht man für die kleine Melodie die Noten? ARGH

    ich hoffe du erlaubst dir gerade einen Spass, ansonsten

    Hausaufgabe

    Höre Hänschen Klein raus

    :D
     
  12. Jag-Stang

    Jag-Stang Registrierter Benutzer

    Im Board seit:
    09.10.04
    Zuletzt hier:
    10.01.07
    Beiträge:
    498
    Ort:
    Schweiz
    Zustimmungen:
    0
    Kekse:
    59
    Erstellt: 12.06.05   #12
    öhm das sind keine noten ;)
     
  13. Alice_im_wunderl

    Alice_im_wunderl Threadersteller Registrierter Benutzer

    Im Board seit:
    06.04.05
    Zuletzt hier:
    21.01.06
    Beiträge:
    38
    Ort:
    Gronig
    Zustimmungen:
    0
    Kekse:
    10
    Erstellt: 12.06.05   #13
    1.Sorry, ich meinte Tabs
    2.Ich hab absolut keinen plan wie ich was raushören kann/soll und ich denke auch nicht dass ich das so schnell lernen kann muss zuerst fürs scheiss abi lernen:(
     
  14. Stringgod

    Stringgod HCA Gitarre HCA

    Im Board seit:
    31.08.04
    Zuletzt hier:
    30.12.14
    Beiträge:
    2.111
    Ort:
    Essen
    Zustimmungen:
    4
    Kekse:
    2.130
    Erstellt: 12.06.05   #14
    Man, ist mir langweilig. :D

    Edit: Ups, da waren einige schneller. Aber ich hab Akkord dabei. :cool:
     

    Anhänge:

  15. wary

    wary Registrierter Benutzer

    Im Board seit:
    30.10.03
    Zuletzt hier:
    21.04.13
    Beiträge:
    4.877
    Ort:
    Jena
    Zustimmungen:
    8
    Kekse:
    19.066
    Erstellt: 12.06.05   #15
    doch, das "rauszuhören" kannst du schnell lernen. Ich denke eine Stunde Zeit wirst du noch frei haben, oder? Setz dich hin und finde den ersten Ton der Melodie heraus, wobei dieser im Grunde ja noch frei wählbar ist solange es nur um die Melodie an sich geht. Dann probier einfach aus ob der nächste Ton höher oder tiefer ist, wo er auf dem Griffbrett liegen könnte etc.

    Gehörbildung ist elementar, und sowas wie alle meine Entchen sollte auch ein Anfänger leicht herausfinden
     
  16. AndreasW

    AndreasW Registrierter Benutzer

    Im Board seit:
    16.05.05
    Zuletzt hier:
    8.10.14
    Beiträge:
    1.469
    Ort:
    Hamburg
    Zustimmungen:
    4
    Kekse:
    2.972
    Erstellt: 12.06.05   #16
    Das Lied kann auch so gespielt werden:

    e|--------------------------------------------------------------------------
    B|--------------------------------------------------------------------------
    G|----------0-0-2-2-2-0-2-2-2-0--------------------------0-0---------5~~~-
    D|---0-2-3-----------------------3-3-3-2-2-0-0-0--0-2-3------3-2-0-5~~~-
    A|-3----------------------------------------------3----------------------3~~~-
    E|--------------------------------------------------------------------------

    :rock::great::D

    Andreas
     
  17. Little_Raven

    Little_Raven Registrierter Benutzer

    Im Board seit:
    20.08.03
    Zuletzt hier:
    28.04.10
    Beiträge:
    1.142
    Zustimmungen:
    2
    Kekse:
    1.168
    Erstellt: 12.06.05   #17
    Oder doch lieber Metal?

    Habe eins der ganz ganz raren Judas Priest Alle meine Entchen Tabs bei eBay für viel Kohle ergattern können ;)
     

    Anhänge:

  18. KlausP

    KlausP HCA Gitarre HCA

    Im Board seit:
    25.01.04
    Zuletzt hier:
    14.07.11
    Beiträge:
    6.293
    Ort:
    Franken
    Zustimmungen:
    10
    Kekse:
    13.246
    Erstellt: 12.06.05   #18
  19. Stoli

    Stoli Registrierter Benutzer

    Im Board seit:
    25.04.05
    Zuletzt hier:
    6.04.15
    Beiträge:
    1.351
    Ort:
    Amberg
    Zustimmungen:
    0
    Kekse:
    1.399
    Erstellt: 12.06.05   #19
    hier mal mein vorschlag
    P.H.
    ----------------------------------------------------------------------------
    ----------------------------------------------------------------------------
    --------------------0-0-0-0----0-0-0-0------------------------------------
    --------0--1--3-3-----------3-----------3-1-1-1-1-0-0--3-3-3-3---------
    --1--3---------------------------------------------------------------1~-------
    ------------------------------------------------------------------------------
     
  20. AgentOrange

    AgentOrange Mod Emeritus Ex-Moderator

    Im Board seit:
    16.04.04
    Zuletzt hier:
    7.12.16
    Beiträge:
    9.770
    Ort:
    Heidelberg
    Zustimmungen:
    354
    Kekse:
    7.549
    Erstellt: 12.06.05   #20



    OMFG, rofl :D Irgendwie is das geil :great:


    Das Lied basiert grad auf der C-dur tonleiter, das is so ziemlich das einfachste zum raushörn ever ...



    Btw., hab mal stringgods version genommen :D

    http://rapidshare.de/files/2337733/entsche.mp3.html
     
Die Seite wird geladen...

mapping