An Alle Metalllica Fans Ich Brauch Eure Hilfe!!!

von Maggisus, 15.02.07.

  1. Maggisus

    Maggisus Registrierter Benutzer

    Im Board seit:
    30.08.06
    Zuletzt hier:
    4.11.16
    Beiträge:
    764
    Zustimmungen:
    0
    Kekse:
    82
    Erstellt: 15.02.07   #1
    Und zwar geht es um Nothing Else Matters Live Rock Am Ring 2006.

    Siehe hier: YouTube - Metallica - Nothing Else Matters (live Rock Am Ring 2006)

    Und zwar wollt ich wissen bei dem Intro wo James dann mitspielt den Teil wollte ich gern wissen. Der geht ab 0:40 los und ich wollt bitte den Teil ab 0:46 ungefähr, da spielt James irgend so einen genialen Lick rein der glaub ich bei den Bünden zwischen 1 und 4 liegen. Der ist nicht auf der Orginal Version drauf, sondern nur bei der Live Version.

    Bitte schreibt!!! Falls ihr den Lick kennt!!!!!
     
  2. Wödan

    Wödan Registrierter Benutzer

    Im Board seit:
    01.04.05
    Zuletzt hier:
    22.10.14
    Beiträge:
    1.421
    Zustimmungen:
    3
    Kekse:
    1.093
    Erstellt: 15.02.07   #2
    Ich hab das immer so gespielt:

    |--------------------|
    |--------------------|
    |--------------------|
    |--------------------|
    |--3--2-3-2----------|
    |-------------3-2-0--|
     
  3. deeper_purple

    deeper_purple Registrierter Benutzer

    Im Board seit:
    21.12.04
    Zuletzt hier:
    29.12.11
    Beiträge:
    920
    Zustimmungen:
    0
    Kekse:
    418
    Erstellt: 15.02.07   #3
    dürfen auch nicht metallica fans schreiben?^^

    so müsste es sein... musst dafür aber n halbton runterstimmen...

    PHP:
    A|--2h3p2-----------|
    E|----------3--0-----|
    gruß,


    deeper_purple

    edit: wodäns version klingt richtiger :) :great:
     
  4. Maggisus

    Maggisus Threadersteller Registrierter Benutzer

    Im Board seit:
    30.08.06
    Zuletzt hier:
    4.11.16
    Beiträge:
    764
    Zustimmungen:
    0
    Kekse:
    82
    Erstellt: 15.02.07   #4
    Genau den Teil wollt ich!
    Aber ich denke des auf der A Saite klingt irgendwie schon fast zu hoch oder nicht?
     
  5. Helle B.eC

    Helle B.eC Registrierter Benutzer

    Im Board seit:
    01.09.06
    Zuletzt hier:
    3.04.09
    Beiträge:
    345
    Ort:
    Kreis Neuwied
    Zustimmungen:
    0
    Kekse:
    136
    Erstellt: 15.02.07   #5
    Ich denke mal, dass es die ganz normale Live-Version ist:

    Code:
    Spur 1
         E.  S S S Q.        E  E  E  E  E  E     E.  S S S Q.      
    E||------------7------|--------------------|------------7------|
    B||------------8------|--------7--------5--|------------8------|
    G||----------9--------|--------7--------5--|----------9--------|
    D||--------9----------|-----7--------5-----|--------9----------|
    A||------7------------|--5--------3--------|------7------------|
    E||--0----------------|--------------------|--0----------------|
    
    
      E  E  E  E  S S S S    E.  S S S Q.        E  S S E  E  S S E   
    ----------------------|------------7------|-----5---------3------|
    --------7-------------|------------8------|-------7---------5----|
    --------7-------------|--------9----------|---------7---------5--|
    -----7----------------|----------9--------|-----7---------5------|
    --5--------3--3-2-----|------7------------|--5---------3---------|
    ------------------3-2-|--0----------------|----------------------|
    
    
      E  S S E  E  S S E     E  E  E  E  E  E     E  E  E  E  E  E    
    -----3---------2------|-----------0--------|-----------0--------||
    -------3---------4----|--------0-----0-----|--------0-----0-----||
    ---------4---------2--|-----0-----------0--|-----0-----------0--||
    -----5---------4------|--------------------|--------------------||
    ------------2---------|--------------------|--------------------||
    --3-------------------|--0-----------------|--0-----------------||
    Code:
    Spur 2
         E.  S S S Q.        E  E  E  E  E  E     E.  S S S Q.      
    E||------------7------|--------------------|------------7------|
    B||------------8------|--------7--------5--|------------8------|
    G||----------9--------|--------7--------5--|----------9--------|
    D||--------9----------|-----7--------5-----|--------9----------|
    A||------7------------|--5--------3--------|------7------------|
    E||--0----------------|--------------------|--0----------------|
    
    
      E  E  E  E  E  E     Q    S S Q.        E  S S E  E  S S E   
    --------------------|-----------7------|-----5---------3------|
    --------7--------5--|---------8--------|-------7---------5----|
    --------7--------5--|-------9----------|---------7---------5--|
    -----7--------5-----|------------------|----------------------|
    --5--------3--------|------------------|----------------------|
    --------------------|--0---------------|----------------------|
    
    
                                                      NH             
                             |--3-|                                  
      E  S S E  E  S S E     S  S S Q.     Q          H.             
    -----3---------2------|---------------------|--<>12------------||
    -------3---------4----|---------------------|--<>12------------||
    ---------4---------2--|--2p-0---0-----------|--<>12------------||
    ----------------------|-------4-------------|------------------||
    ----------------------|---------------------|------------------||
    ----------------------|---------------------|------------------||
    Ich hoffe ich konnte helfen ;)
     
  6. Maggisus

    Maggisus Threadersteller Registrierter Benutzer

    Im Board seit:
    30.08.06
    Zuletzt hier:
    4.11.16
    Beiträge:
    764
    Zustimmungen:
    0
    Kekse:
    82
    Erstellt: 15.02.07   #6
    Ich finde das sehr interessant was jeder hier so schreibt denn jeder spielt das irgendwie anders und das find ich super das ihr mir alle mal euere Versionen sagt weil ich es ja auch wieder anders spiel. Vielleicht könnt ihr ja noch weitere Vorschläge machen.
     
  7. Wödan

    Wödan Registrierter Benutzer

    Im Board seit:
    01.04.05
    Zuletzt hier:
    22.10.14
    Beiträge:
    1.421
    Zustimmungen:
    3
    Kekse:
    1.093
    Erstellt: 15.02.07   #7
    Das kann daher kommen, dass die live auf Eb spielen. Tune dich mal nen alben Ton tiefer und probiers dann nochmal aus.
     
  8. Maggisus

    Maggisus Threadersteller Registrierter Benutzer

    Im Board seit:
    30.08.06
    Zuletzt hier:
    4.11.16
    Beiträge:
    764
    Zustimmungen:
    0
    Kekse:
    82
    Erstellt: 15.02.07   #8
    Ja hab ich schon gemacht.
    War nur ungewohnt und deshalb hat sichs komisch angehört. Jetzt find ich es eigentlich ganz geil ^^ Nur ist es doch nicht ganz genau aber es muss ja nicht so sein denn es wär ja auch scheiße wenn jeder das gleiche spielt! Deshalb spiel ich das Lied auf mal so und mal so wie es mir gerade gefällt.
     
Die Seite wird geladen...

mapping