Basslinie von "Everything (Alanis Morissette)"

von hilmi01, 21.05.07.

  1. hilmi01

    hilmi01 Registrierter Benutzer

    Im Board seit:
    27.12.06
    Zuletzt hier:
    4.12.16
    Beiträge:
    2.979
    Ort:
    München
    Zustimmungen:
    113
    Kekse:
    11.125
    Erstellt: 21.05.07   #1
    Habe mich an dem Song Everything (Alanis Morissette) festgehört.

    Die Gitarrenparts mit Kapo am 1. Bund sind diese:

    Intro & Refrain
    |--------5--7--5--|--------5--7--5--|
    |-----5-----------|-----5-----------|
    |-----------------|-----------------|
    |-----------------|--0--------------|
    |--0--------------|-----------------|
    |-----------------|-----------------|

    Verse
    |-----------------|-----------------------|
    |-----------0-----|-----------0--2--0-----|
    |--------2-----2--|--------2-----------2--|
    |-----2-----------|-----1-----------------|
    |--0--------------|--0--------------------|
    |-----------------|-----------------------|


    Obwohl das Stück insgesamt sehr einfach ist, hadere ich mit der Basslinie der 2. Strophe. Kann jemand helfen?

    edit:
    Die einzigen Tabs im Netz habe ich hier gefunden. Die bringen mich jedoch nicht weiter.
     
  2. padawan

    padawan Registrierter Benutzer

    Im Board seit:
    29.03.06
    Zuletzt hier:
    2.02.14
    Beiträge:
    108
    Zustimmungen:
    0
    Kekse:
    24
    Erstellt: 11.06.07   #2
  3. hilmi01

    hilmi01 Threadersteller Registrierter Benutzer

    Im Board seit:
    27.12.06
    Zuletzt hier:
    4.12.16
    Beiträge:
    2.979
    Ort:
    München
    Zustimmungen:
    113
    Kekse:
    11.125
    Erstellt: 11.06.07   #3
    Von 0:21 bis 0:33 und von 1:03 bis 1:29 - klingt ganz einfach, aber ich hör die tiefen Töne so schlecht... ;)
     
  4. Ratti

    Ratti Registrierter Benutzer

    Im Board seit:
    17.06.06
    Zuletzt hier:
    27.07.09
    Beiträge:
    88
    Zustimmungen:
    0
    Kekse:
    57
    Erstellt: 04.08.08   #4
    Cool, ich suche schon eeewig nach dem Lied!! Hast du es nun komplett und würdest es mir schicken?
     
  5. hilmi01

    hilmi01 Threadersteller Registrierter Benutzer

    Im Board seit:
    27.12.06
    Zuletzt hier:
    4.12.16
    Beiträge:
    2.979
    Ort:
    München
    Zustimmungen:
    113
    Kekse:
    11.125
    Erstellt: 04.08.08   #5
    Mehr als die Tabs aus dem ersten Beitrags sowie die dort verlinkten Tabs habe ich auch nicht. Aber das ist für Gitarre ohnehin schon so ziemlich alles, was man für das Stück benötigt.
     
Die Seite wird geladen...