Bryan Adams -- Summer of 69

von Christof, 31.05.05.

  1. Christof

    Christof Registrierter Benutzer

    Im Board seit:
    06.05.05
    Zuletzt hier:
    19.08.16
    Beiträge:
    479
    Ort:
    Berlin 12***
    Zustimmungen:
    1
    Kekse:
    253
    Erstellt: 31.05.05   #1
    sorry, aber ich suche es jetzt schon länger, habs aber nich wirklich gefunden...(vll stell ich mich ja zu blöd an)
    ich suche von bryan adams Summer of 69 und villeicht auch ein paar tipps wie ich das am besten spiele :p
    Danke,
    Chriss
     
  2. A.P.

    A.P. Registrierter Benutzer

    Im Board seit:
    23.11.04
    Zuletzt hier:
    22.03.09
    Beiträge:
    969
    Ort:
    Ösiland
    Zustimmungen:
    2
    Kekse:
    205
    Erstellt: 31.05.05   #2
    in einer der letzten guitar war der song drinnen...
     
  3. MrFair

    MrFair Registrierter Benutzer

    Im Board seit:
    28.12.04
    Zuletzt hier:
    28.02.12
    Beiträge:
    703
    Zustimmungen:
    0
    Kekse:
    817
    Erstellt: 31.05.05   #3
    Wenn du Guitar Pro hast: Schau auf www.mysongbook.com vorbei, da gibt es ein gutes Tab.
     
  4. MrK

    MrK Registrierter Benutzer

    Im Board seit:
    09.10.04
    Zuletzt hier:
    7.07.08
    Beiträge:
    175
    Zustimmungen:
    0
    Kekse:
    68
    Erstellt: 31.05.05   #4
  5. Christof

    Christof Threadersteller Registrierter Benutzer

    Im Board seit:
    06.05.05
    Zuletzt hier:
    19.08.16
    Beiträge:
    479
    Ort:
    Berlin 12***
    Zustimmungen:
    1
    Kekse:
    253
    Erstellt: 31.05.05   #5
    sorry aber ich krieg bei meinem kiosk die nich, und für nen abo hab ich kein geld...

    danke an die anderen, i will enjoy it ;)
    Chriss
     
  6. thommy

    thommy Registrierter Benutzer

    Im Board seit:
    25.03.04
    Zuletzt hier:
    24.11.11
    Beiträge:
    4.586
    Ort:
    its better to burn out than to fade away ?? ...
    Zustimmungen:
    10
    Kekse:
    1.456
    Erstellt: 31.05.05   #6
    D und A


    und fertich

    :rolleyes:
     
  7. Direwolf

    Direwolf Registrierter Benutzer

    Im Board seit:
    19.08.03
    Zuletzt hier:
    8.12.16
    Beiträge:
    974
    Ort:
    Thüngfeld
    Zustimmungen:
    16
    Kekse:
    913
    Erstellt: 31.05.05   #7
    lol
    und im zwischenteil F und nochwas :) :)

    cu Direwolf
     
  8. mupf

    mupf Registrierter Benutzer

    Im Board seit:
    30.12.04
    Zuletzt hier:
    13.12.10
    Beiträge:
    54
    Zustimmungen:
    0
    Kekse:
    10
    Erstellt: 31.05.05   #8
    Ich denke diese ganzen guitar pro dinger taugen nicht so...
    Also: *hoffentlich kann man meine tabs lesen* man umspielt praktisch nur d und a dur!

    Alles downstrokes jeweils eins,zwei,drei ; eins,zwei,drei ; eins,zwei,drei ; eins,zwei,drei ; eins und zwei

    nur als Hilfe zum zählen des Rhytmus

    Das Intro:
    E|---000-222-333-222-00-2---------|
    B|---333-333-333-333-33-3---------|
    G|---222-222-222-222-22-3---------|
    D|----------------------------------|
    A|----------------------------------|
    E|----------------------------------|


    E|---000-000-000-000-00-0---------|
    B|---000-222-333-222-00-2---------|
    G|---222-222-222-222-22-2---------|
    D|---222-222-222-222-22-2---------|
    A|----------------------------------|
    E|----------------------------------|

    Der Hauptteil ist nur :

    Bm , A, D und G

    Am Ende des Haupteils ist nur Bm und dann A-Dur ausklingen lassen
    und dann gehts mit dem Intro weiter


    Hoffe es hat geholfen! War mein erster Tab ^^

    Gruß mupf :)
     
  9. Stringgod

    Stringgod HCA Gitarre HCA

    Im Board seit:
    31.08.04
    Zuletzt hier:
    30.12.14
    Beiträge:
    2.111
    Ort:
    Essen
    Zustimmungen:
    4
    Kekse:
    2.130
    Erstellt: 31.05.05   #9
    Was bedeutet das ?` :confused:

    Also in dem Summer Of 69, dass ich kenne, kommen solch seltsame Akkorde nicht vor (zumindest nicht im Intro). Ich seh da auch keinen Rythmus. Also einfach irgendwie hintereinander spielen ? ;)

    Das Intro stimmt net bei den Guitar Pro Tabs. Das ist einfach n 0815 Powerchordriff, bei dem die abgedämpften 8tel durchgehen. Nicht sowas seltsames wie in dem GP File. Und man muss auch keine vollen Akkorde spielen. Solange noch ein Keyboarder dabei ist, reichen PC aus, könnten sogar noch besser klingen.

    Gruss,

    String
     
  10. Ray

    Ray Mod Emeritus Ex-Moderator HCA

    Im Board seit:
    22.08.03
    Zuletzt hier:
    24.06.15
    Beiträge:
    13.344
    Ort:
    Frankfurt
    Zustimmungen:
    65
    Kekse:
    8.834
    Erstellt: 31.05.05   #10
  11. Stringgod

    Stringgod HCA Gitarre HCA

    Im Board seit:
    31.08.04
    Zuletzt hier:
    30.12.14
    Beiträge:
    2.111
    Ort:
    Essen
    Zustimmungen:
    4
    Kekse:
    2.130
    Erstellt: 31.05.05   #11
  12. MrFair

    MrFair Registrierter Benutzer

    Im Board seit:
    28.12.04
    Zuletzt hier:
    28.02.12
    Beiträge:
    703
    Zustimmungen:
    0
    Kekse:
    817
    Erstellt: 01.06.05   #12
    Ich glaub ich seh nicht richtig, gibts doch tatsächlich ne Power Tab Version davon. Hab gestern, als ich dne anderen Post geschrieben hab, extra auf www.powertabs.net geguckt, aber er hat mir weder bei "Bryan Adams" noch bei "Summer of 69" (habs ohne ' eingegeben) was ausgespuckt. Sauerei! :D

    /Edit: Naja, auch kein Wunder wenn ich bei der Suche nach "Bryan Adams" nicht auf "Artist" umstelle, hab ich ganz vergessen.
     
  13. Line6er

    Line6er Registrierter Benutzer

    Im Board seit:
    17.10.04
    Zuletzt hier:
    12.07.12
    Beiträge:
    244
    Ort:
    Berlin
    Zustimmungen:
    0
    Kekse:
    63
    Erstellt: 13.07.08   #13
    Hallo,
    ich habe schon mehrmals nach dem Solo dieses Songs gesucht, aber leider vergebens...
    hat einer von euch vieleicht das solo zu summer of 69 parat und kann mir das schicken?
    :rolleyes::screwy::)
    wäre echt hilfreich...
    Danke!
     
  14. HellPaso

    HellPaso Registrierter Benutzer

    Im Board seit:
    24.09.06
    Zuletzt hier:
    6.11.12
    Beiträge:
    2.222
    Zustimmungen:
    7
    Kekse:
    3.148
    Erstellt: 13.07.08   #14
    Code:
    e|-------------------------------------------------------------------------|
    B|-------------------5/7-----7--7\5----(5)----(5)----(5)--7^--7---7^---(7)-|
    G|-7------(7)----(7)-------------------------------------------------------|
    D|-------------------------------------------------------------------------|
    A|-------------------------------------------------------------------------|
    E|-------------------------------------------------------------------------|
    
    e|----------------------------------------------10-10-----10----10---(10)--|
    B|-10----10-(10)--------10----10----(10)----12-----------------------------|
    G|-------------------------------------------------------------------------|
    D|-------------------------------------------------------------------------|
    A|-------------------------------------------------------------------------|
    E|-------------------------------------------------------------------------|
    
    e|-12^-12^-12^-12--(12)--------(12)-----14^------14^-(14)-----14-(14)--|
    B|---------------------------------------------------------------------|
    G|---------------------------------------------------------------------|
    D|---------------------------------------------------------------------|
    A|---------------------------------------------------------------------|
    E|---------------------------------------------------------------------|
    
    e|-14---14^--14-14-----14/12-12-(12)----12------(12)-12-------12-14-12/10--|
    B|-------------------------------------------------------------------------|
    G|-------------------------------------------------------------------------|
    D|-------------------------------------------------------------------------|
    A|-------------------------------------------------------------------------|
    E|-------------------------------------------------------------------------|
    
    e|---------------------14---14------14----14/12----12\14-12----12---12\14--|
    B|-15-----15-(15)---15-----------------------------------------------------|
    G|-------------------------------------------------------------------------|
    D|-------------------------------------------------------------------------|
    A|-------------------------------------------------------------------------|
    E|-------------------------------------------------------------------------|
    
    e|-12----12---12\14-12/10---10---|
    B|-------------------------------|
    G|-------------------------------|
    D|-------------------------------|
    A|-------------------------------|
    E|-------------------------------|
     
Die Seite wird geladen...

mapping