CCR - Bad Moon Rising

von patrice, 08.04.05.

  1. patrice

    patrice Registrierter Benutzer

    Im Board seit:
    26.12.04
    Zuletzt hier:
    25.09.07
    Beiträge:
    865
    Ort:
    Melchnau (CH)
    Zustimmungen:
    1
    Kekse:
    350
    Erstellt: 08.04.05   #1
    Hallo,

    ich als ziemlich grosser CCR & Fogerty- Fan wollte mal 'Bad Moon Rising' spielen.

    Jetzt habe ich ein Problem und zwar folgendes:

    John Fogerty spielt z.B. nach den Worten "I see the bad moon arisin'" noch ein kleines Riff oder eine Tonfolge, die ich irgendwie von den Tabs im Netz nicht herauslesen / nicht finden kann.

    Der Song wird mit den Akkorden D, A, G, D gespielt.

    Könnt ihr mir helfen, und das Riff heraushören (ist ja jedes Mal dasselbe, wenn er es spielt, immer nach den Texten bzw. nach dem Chorus...)?

    M.F.G.
    Patrice
     
  2. Fechlabbl

    Fechlabbl Registrierter Benutzer

    Im Board seit:
    25.03.05
    Zuletzt hier:
    6.05.05
    Beiträge:
    39
    Ort:
    Hördt
    Zustimmungen:
    0
    Kekse:
    10
    Erstellt: 08.04.05   #2
    Hi, also ich würds so spielen:
    (ich mach noch den anfang dazu, zur orientierung...)
    jetz weiss ich erst welchen part du meinst
    das spielt aber ne 2. gitarre, ich machs mal in blau dazu
    hoff mal es verwirrt nicht ;)



    ----2-------2-2-x--------5---------3--|-----2-------2-2------
    ----3-------3-3-x--------5---------3--|-----3-------3-3------
    ----2-------2-2-x---6---6-----4----4--|-----2-------2-4------
    -0------------------7---7-----5----5--|--0------------0------
    --------------------7---------5--------|----------------------
    --------------------5---------3--------|----------------------


    ----------------------------------------|----------------------
    ----------------------------------------|-----------4----------
    ----------------------------------------|----------------------
    ----------------------------------------|-----4----------------
    ----------------------------------------|----------------------
    ----------------------------------------|----------------------
    x______x_________x________x___________x_______x___________




    -2-2--2----2---2-----------
    -3-3--3----3---3-----------
    -2-2--4----2---4-----------
    -0-0--0----0---0-----------
    ----------------------------
    ----------------------------

    ----------------------------
    ----------------------------
    --------2-----4p2-----------
    ----3h4------------4--3p0--
    ----------------------------
    ----------------------------

    x________x_________x____

    die ´x´ sollen den takt darstellen (1,2,3,4)


    ich hoff es kommt hin und du kannst was mit anfangen ;)
     
Die Seite wird geladen...

mapping