Workshop | "Metallica - Master of Puppets"

  • Ersteller Decadox
  • Erstellt am
Status
Für weitere Antworten geschlossen.
riddler
riddler
Registrierter Benutzer
Zuletzt hier
04.10.19
Registriert
14.11.05
Beiträge
3.264
Kekse
6.122
Ort
BaWü
Die Noten sind dieselben ;)
 
metallica666
metallica666
Registrierter Benutzer
Zuletzt hier
08.09.13
Registriert
09.08.09
Beiträge
108
Kekse
10
Ort
Dinslaken
gut erklärt, super hilfe ,cool!!
 
L
latchmann
Registrierter Benutzer
Zuletzt hier
27.03.11
Registriert
16.06.09
Beiträge
20
Kekse
243
49_fan_49
49_fan_49
Registrierter Benutzer
Zuletzt hier
12.08.14
Registriert
03.10.08
Beiträge
145
Kekse
27
http://www.youtube.com/watch?v=nGYwwvWiCi8
kirk spielts ungefähr so

E||-------------------|------------------------|
B||-------------------|------------------------|
G||-------------------|------------------------|
D||--2----------------|---12-----11-----10----|
A||--2----------------|---10-----11-----10----|
E||--0----------------|---10------9------8-----|

aber wie gesagt hauptsache es klingt gut

an dem video kann man folgendes gut erkennen

Ich spiel des Intro auch leicht anders, zumindest eine Note:

Intro Riff 3

Tab aus dem Workshop:

E||-----------------------------|-----------------------------|
B||-----------------------------|-----------------------------|
G||-----------------------------|-----------------------------|
D||-----------------------------|-----------------------------|
A||-----------------------------|-----------------------------|
E||--0--0--7--0--0--6--0--0--|--5--0--4--0--3--0--2--0--|
PM--m-m-----m-m-----m-m--|----m-----m-----m----m--|(sorry, ging irgendwie net mit Pünktchen)

Und so wie ich es spiel:

E||-----------------------------|-----------------------------|
B||-----------------------------|-----------------------------|
G||-----------------------------|-----------------------------|
D||-----------------------------|-----------------------------|
A||-----------------------------|-----------------------------|
E||--0--0--7--0--0--6--0--0--|--5--0--4--0--3--0--2--1--|
PM--m-m-----m-m-----m-m--|----m-----m-----m-m-m--|

Find so hörts sich "smoother" an!

Ist auch schwer zu hören, weil Lars immer an der Stelle ordentlich aufs Bass und Crash haut, aber beim Übergang zum nächsten Riff (bei ca. 0:22), find ich hört man es raus, dass es nicht --2--0--0-- sondern dann --2--1--0-- ist, muss aber auch net stimmen. :D

Könnt ja mal schauen, obs euch so besser gefällt.

MfG, -DNS-


ich möcht noch allen die das gerade üben einen tipp geben (der zumindest mir hilft): Die ganzen Powerchord slides lassen sich mit Zeigefinger und kleinem Finger etwas leichter spielen als mit Zeige- und Ringfinger.
 
Zuletzt bearbeitet:
LoneLobo
LoneLobo
Mod Emeritus
Ex-Moderator
HCA
Zuletzt hier
15.01.21
Registriert
13.04.04
Beiträge
8.486
Kekse
22.279
Ort
Österreich
Ich bitte zu entschuldigen dass sich die Gesetzgebung seit Erstellung des Themas geändert hat und ich den Thread deswegen schließen muss.
 
Status
Für weitere Antworten geschlossen.

Ähnliche Themen


Neue Themen

Unser weiteres Online-Angebot:
Bassic.de · Deejayforum.de · Sequencer.de · Clavio.de · Guitarworld.de · Recording.de

Musiker-Board Logo
Oben