Ein paar selbstgeschriebene songs.... (midi)

von Domo, 31.01.04.

  1. Domo

    Domo Helpful & Friendly User HFU

    Im Board seit:
    31.08.03
    Zuletzt hier:
    20.09.16
    Beiträge:
    10.963
    Zustimmungen:
    77
    Kekse:
    13.607
    Erstellt: 31.01.04   #1
    http://dhead.piranho.com/dasong.mid
    http://dhead.piranho.com/song.mid
    (kopieren&einfügen)

    wie findet ihr die? (unterer ist noch nicht fertig)
    bin noch absoluter neuling was songwriting angeht, das sind zwei meiner jetzigen werke. aus guitar pro exportiert, deshalb midi (live klingts besser :D).
    den zweiten song habe ich versucht extra simple zu halten :D

    kritiken jeglicher art sind erwünscht :)
     
  2. black-skull

    black-skull Registrierter Benutzer

    Im Board seit:
    21.12.03
    Zuletzt hier:
    26.06.16
    Beiträge:
    1.488
    Zustimmungen:
    3
    Kekse:
    156
    Erstellt: 31.01.04   #2
    kostet das was die runter zu laden?
     
  3. Domo

    Domo Threadersteller Helpful & Friendly User HFU

    Im Board seit:
    31.08.03
    Zuletzt hier:
    20.09.16
    Beiträge:
    10.963
    Zustimmungen:
    77
    Kekse:
    13.607
    Erstellt: 31.01.04   #3
    nein tuts nicht :)
     
  4. black-skull

    black-skull Registrierter Benutzer

    Im Board seit:
    21.12.03
    Zuletzt hier:
    26.06.16
    Beiträge:
    1.488
    Zustimmungen:
    3
    Kekse:
    156
    Erstellt: 31.01.04   #4
    werd sie mir gleich runterlouden
    und dann schreib ich meine meinung
     
  5. delirious

    delirious Registrierter Benutzer

    Im Board seit:
    24.01.04
    Zuletzt hier:
    18.02.13
    Beiträge:
    615
    Ort:
    Schliersee/Bayern
    Zustimmungen:
    0
    Kekse:
    196
    Erstellt: 31.01.04   #5
    Fein, fein, aber ich sag nur midi. Das macht halt das Feeling wech.
     
  6. Domo

    Domo Threadersteller Helpful & Friendly User HFU

    Im Board seit:
    31.08.03
    Zuletzt hier:
    20.09.16
    Beiträge:
    10.963
    Zustimmungen:
    77
    Kekse:
    13.607
    Erstellt: 31.01.04   #6
    schiiiiieb :D
     
  7. black-skull

    black-skull Registrierter Benutzer

    Im Board seit:
    21.12.03
    Zuletzt hier:
    26.06.16
    Beiträge:
    1.488
    Zustimmungen:
    3
    Kekse:
    156
    Erstellt: 31.01.04   #7
    geil, hast du alles selber gemacht auch das solo am anfang?
    wie lange hast du gebraucht um sowas fertig zu kriegen
    wie lange spielst du eigentlich?
     
  8. Axl

    Axl Registrierter Benutzer

    Im Board seit:
    23.08.03
    Zuletzt hier:
    25.09.09
    Beiträge:
    824
    Ort:
    Bäch
    Zustimmungen:
    0
    Kekse:
    113
    Erstellt: 31.01.04   #8
    Also ehrlich gesagt hauts mich nicht so vom Hocker. Aber ich habe am Anfang auch solche Sachen geschrieben, also kann da schon noch was draus werden.
     
  9. Xeton

    Xeton Registrierter Benutzer

    Im Board seit:
    31.01.04
    Zuletzt hier:
    26.07.13
    Beiträge:
    359
    Ort:
    Wuppertal
    Zustimmungen:
    5
    Kekse:
    135
    Erstellt: 31.01.04   #9
    Also ich find sie eigentlich ganz fein. Das zweite könnte glatt ein Nirvana lied sein...also klar halt im midi format^^
    Aber es is gut, find ich.
     
  10. Domo

    Domo Threadersteller Helpful & Friendly User HFU

    Im Board seit:
    31.08.03
    Zuletzt hier:
    20.09.16
    Beiträge:
    10.963
    Zustimmungen:
    77
    Kekse:
    13.607
    Erstellt: 31.01.04   #10
    spieln tu ich nu 8 monate.... ich habe für den ersten song 4 stunden für das grundgerüst, etwa 8 stunden (auf zwei wochen verteilt ;)) für Ausbesserungen und verfeinerungen gebraucht. am unteren Song arbeite ich erst 2 stunden ;)

    danke für eure comments, immer nur weiter auch verbesserungsvorschläge wenn euch was nicht gefällt :)

    Wens interessiert: Hatte beim ersten song eigentlich ein verdammt schwieriges solo geschrieben, aber weil ich es selber nicht spielen konnte (4 Takte hindurch 16tel-Triolen ;) und jeder ton anders :shock: ) habe ichs verworfen und das neue geschrieben .... ;)
     
  11. black-skull

    black-skull Registrierter Benutzer

    Im Board seit:
    21.12.03
    Zuletzt hier:
    26.06.16
    Beiträge:
    1.488
    Zustimmungen:
    3
    Kekse:
    156
    Erstellt: 31.01.04   #11
    hast du das solo aus der pentatonic ?
    oder nur einfach so irgendwas gespielt und immer verbessert?
     
  12. Domo

    Domo Threadersteller Helpful & Friendly User HFU

    Im Board seit:
    31.08.03
    Zuletzt hier:
    20.09.16
    Beiträge:
    10.963
    Zustimmungen:
    77
    Kekse:
    13.607
    Erstellt: 31.01.04   #12
    jopp, das solo ist aus tönen pentatonischer skalen zusammengesetzt.
     
  13. black-skull

    black-skull Registrierter Benutzer

    Im Board seit:
    21.12.03
    Zuletzt hier:
    26.06.16
    Beiträge:
    1.488
    Zustimmungen:
    3
    Kekse:
    156
    Erstellt: 31.01.04   #13
    ich soll auch so eine kleine melodie oder solo aus den tönen einer pentatonic zusammen setzen

    aber so das richtige war noch nicht dabei
    wie kann ich so ein geiles solo machen?(deins find ich a.rsch geil)
     
  14. Domo

    Domo Threadersteller Helpful & Friendly User HFU

    Im Board seit:
    31.08.03
    Zuletzt hier:
    20.09.16
    Beiträge:
    10.963
    Zustimmungen:
    77
    Kekse:
    13.607
    Erstellt: 31.01.04   #14
    1. alle 5 pentatonischen skalen lernen, das erweitert die Möglichkeiten ENORM
    2. benden, nicht zu viel aber gezielt und nie mehr als einen ganzton ;) sonst wirds schlampig ;)
    3. gezielter einsatz von doublestops (zwei töne gleichzeitig) terzen eigenen sich hier sehr gut :)

    das wär eigentlich meine checkliste :)
     
  15. Hannibal2k

    Hannibal2k Registrierter Benutzer

    Im Board seit:
    25.12.03
    Zuletzt hier:
    30.07.07
    Beiträge:
    317
    Zustimmungen:
    0
    Kekse:
    10
    Erstellt: 31.01.04   #15
    Hi,
    ich wuerde dann mir noch die normalen Dur-Skalen anschauen, dann duerfte man fuer den Anfang schonmal genug haben. Mann kann auch von einem Ton der eigentlich nicht der Skale liegt zum dem richtigen Sliden. Man kann auch man mehrere Noten auf einmal spielen, quasi nen Akkord mit reinbringen.
    Zu den Bendings: Ich wuere nicht immer bei nen Ganztonschritt halt machen, es kann sich auch total toll anhoeren wenn man mal ne Quarte bendet.

    Gruss Christoph
     
  16. grandmiles

    grandmiles Registrierter Benutzer

    Im Board seit:
    18.10.03
    Zuletzt hier:
    29.03.16
    Beiträge:
    264
    Zustimmungen:
    0
    Kekse:
    10
    Erstellt: 31.01.04   #16
    jo das hoert sich ja schon geil an,kannste vom ersten ein tab machen? :p
     
  17. KrshnaBooz

    KrshnaBooz Gesperrter Benutzer

    Im Board seit:
    04.11.03
    Zuletzt hier:
    29.07.09
    Beiträge:
    431
    Ort:
    BWL
    Zustimmungen:
    0
    Kekse:
    111
    Erstellt: 31.01.04   #17
    der anfang von dem ersten song ist ganz gut geworden...aber sonst hauen die teile nicht wirklich um... aber das ist eben MIDI...nimms ordentlich auf und dann sieht das vielleicht ganz anders aus!
     
  18. black-skull

    black-skull Registrierter Benutzer

    Im Board seit:
    21.12.03
    Zuletzt hier:
    26.06.16
    Beiträge:
    1.488
    Zustimmungen:
    3
    Kekse:
    156
    Erstellt: 31.01.04   #18
    danke


    aber ich kenne nur diese pentatonic

    ---------------------------------------------- z.b. in A
    -----------------------------10----------
    -----------------------9-11-----------------
    --------------7-9-11---------------------
    ---------7-9-------------------------------
    --5-7-7-----------------------------------

    gibt es da noch mehr?
     
  19. grandmiles

    grandmiles Registrierter Benutzer

    Im Board seit:
    18.10.03
    Zuletzt hier:
    29.03.16
    Beiträge:
    264
    Zustimmungen:
    0
    Kekse:
    10
    Erstellt: 31.01.04   #19
    jo,mach einer mal'n tab vom solo :D
     
  20. Domo

    Domo Threadersteller Helpful & Friendly User HFU

    Im Board seit:
    31.08.03
    Zuletzt hier:
    20.09.16
    Beiträge:
    10.963
    Zustimmungen:
    77
    Kekse:
    13.607
    Erstellt: 31.01.04   #20
    Solo:

    [code:1]
    E||----------------------------|----------------------------|
    B||----------------------------|----------------------------|
    G||--12----12--11----12----13b-|----12----11----12--11------|
    D||----------------------------|------------------------14--|
    A||----------------------------|----------------------------|
    E||----------------------------|----------------------------|



    --------------------------|------------------------------|
    --------------------------|--12----------12--13--12--12--|
    ----12----12--11----12----|--------14----12--14--12--12--|
    --------------------------|------------------------------|
    --------------------------|------------------------------|
    --------------------------|------------------------------|



    --------------------------|------------------------------|
    --------------------------|------------------------------|
    ----12----12--11----12----|--14----12----11--12--11--12--|
    --------------------------|------------------------------|
    --------------------------|------------------------------|
    --------------------------|------------------------------|



    ----------------------------|----------------12----14----|
    ----------------15----13----|--12--------12--13----15----|
    --------12--12--------------|--------14------------------|
    --14------------------------|----------------------------|
    ----------------------------|----------------------------|
    ----------------------------|----------------------------|



    --------------------------|--------------------------------------|
    --15b-------15-12-15------|--15-12-------------------------------|
    --------------------------|--------15-14-12-------------12-14b---|
    --------------------------|-----------------14-12-14-------------|
    --------------------------|--------------------------------------|
    --------------------------|--------------------------------------|



    ------------------------------------------|------------------------------|
    ------------------------------------------|------------------------------|
    --12-14b-14b14b14b14b14b14b14b14b14b14r---|--12-14-12--------------------|
    ------------------------------------------|-----------14------12---14----|
    ------------------------------------------|------------------------------|
    ------------------------------------------|------------------------------|



    --17-15-17b---17b17b17b17b17b17b17b17b17b17r|
    --------------------------------------------|
    --------------------------------------------|
    --------------------------------------------|
    --------------------------------------------|
    --------------------------------------------|



    --17-15-17b---17b17b17b17b17b17b17b17b17b17r|
    --------------------------------------------|
    --------------------------------------------|
    --------------------------------------------|
    --------------------------------------------|
    --------------------------------------------|



    --17-15-17b---17b17b17b17b17b17b17b17b17b17r|--17-15-17----19----22------|
    --------------------------------------------|----------------------------|
    --------------------------------------------|----------------------------|
    --------------------------------------------|----------------------------|
    --------------------------------------------|----------------------------|
    --------------------------------------------|----------------------------|



    --------------------------||
    --------------------------||
    --12-14-12----------------||
    -----------14-------------||
    --------------------------||
    --------------------------||


    [/code:1]
     
Die Seite wird geladen...

mapping