Ende eines COB-Licks gesucht

von Aussensaiter, 29.01.08.

  1. Aussensaiter

    Aussensaiter Registrierter Benutzer

    Im Board seit:
    18.04.07
    Zuletzt hier:
    23.02.15
    Beiträge:
    273
    Ort:
    Wien
    Zustimmungen:
    0
    Kekse:
    168
    Erstellt: 29.01.08   #1
    Sodala. Ich hab es ewig gesucht. Jetzt kann ich mich auf einmal wieder dran erinnern.
    Ich weiß nur nicht ob der 2te Part richtig ist, und wie das Ende geht. Ebensowenig welcher song:screwy:

    Part1:
    Code:
    E ---------------------------------------
    B ----------------------7-6--------------
    G ------7-6-----------6------9-7-6---------
    D ----6----9-7-6----7-------------------
    A --7--------------9-------------------
    E -9-------------------------------------
    
    Part2:
    Code:
    E --------7-6--------------
    B -----6------9-7-6---------
    G --7-------------------
    D-9-------------------
    
    Und das Ende weiß ich auch nimmer. Danke für jede Hilfe =)
     
  2. PhilipH.

    PhilipH. Registrierter Benutzer

    Im Board seit:
    26.01.05
    Zuletzt hier:
    8.12.16
    Beiträge:
    316
    Ort:
    Lgz bei N
    Zustimmungen:
    21
    Kekse:
    584
    Erstellt: 29.01.08   #2
    Das sieht mir nach der Klassik-Bridge aus dem Song "Children of Bodom" vom Hatebreeder-Album aus.
    Bin mir nicht sicher, ob die Tabs so stimmen, ich habe diese nur aus einem Guitar Pro-File genommen. Hast du Guitar-Pro? Wenn ja kannst du dich ja noch nach weiteren GP-Files auf Ultimate-Guitar oder ähnlichem umsehen ;)

    Gruß Philip
     
Die Seite wird geladen...

mapping