Erfundene Sachen

von nermin, 09.01.05.

  1. nermin

    nermin Registrierter Benutzer

    Im Board seit:
    23.11.04
    Zuletzt hier:
    25.03.16
    Beiträge:
    857
    Zustimmungen:
    0
    Kekse:
    71
    Erstellt: 09.01.05   #1
    Also ich glaub mal,dass dieses Thema in der richtigen unterordnung ist.Ihr könnt hier eure selber erfundenen Sachen posten,es können ganze Lieder,Soli,Lics...sein.Am besten postet ihr sie als Tabs,oder zum runterladen als Powertab-files oder GP4-files.So dann mang ich mal an,es ist ein kleines stück und ich bin anfänger,aber ich finde es kling nicht schlecht:

    --------------------------------------
    --------------------------------------
    -----------7-9-9--------------7-7-7-9
    ---7-9h-9--------7-9h-9-9-9-9-------
    --------------------------------------
    --------------------------------------

    Im 7.Bund greift man mit dem Zeigefinger und im 9.Bund mit dem Ringfinger,h=hammer on,b=bend also hochziehen
    Na dann viel Spaß beim posten :great:
     
  2. _Fender_

    _Fender_ Registrierter Benutzer

    Im Board seit:
    07.01.05
    Zuletzt hier:
    4.03.06
    Beiträge:
    126
    Zustimmungen:
    0
    Kekse:
    10
    Erstellt: 09.01.05   #2
    E||----------------------------------|----------------------------------|
    B||----------------------------------|--------------------------------
    G||----------------------------------|------------------------------17--|
    D||----------------------------------|------17------17--19--17--19-----|
    A||--------------17------17--19--17--|--19------19---------------------|
    E||--20--17--20------20--------------|----------------------------------|


    ----------------------------------|--------------17------17--20--17--|
    ----------------------17------17--|--20--17--20------20--------------|
    ------17--19--17--19------19------|----------------------------------|
    --19------------------------------|----------------------------------|
    ----------------------------------|----------------------------------|
    ----------------------------------|----------------------------------|



    --20b-------22--20----------|----------------------------------|
    --------------------22--20--|--22--20--------------------------|
    ----------------------------|----------21--19--21--19----------|
    ----------------------------|--------------------------22--19--|
    ----------------------------|----------------------------------|
    ----------------------------|----------------------------------|



    ----------------------------------|----------------------------|
    ----------------------------------|----------------------------|
    ----------------------------------|----------------------------|
    --22--19--------------------------|----------------------------|
    ----------22--19--22--19----------|--------------------17h-19--|
    --------------------------22--20--|--20b-------17h-20----------|



    --------------------------17h-20--|--20b---------------|----------||
    ------------------17h-20----------|--------------------|----------||
    ----------17h-19------------------|--------------------|----------||
    --17h-19--------------------------|--------------------|----------||
    ----------------------------------|--------------------|----------||
    ----------------------------------|--------------------|----------||

    Hm naja is mehr son eine Pentatonikübung, hört sich aber mit ner einfachen Rythmgitarre mit den passenden Akkorden (A/F/G zb) und einem einfachen Drumfill recht nett an :)
    (Kann man natürlich auch auf Tempo 250 spielen wenn man lustig ist :D )

    Edit: Deffi hat recht : Es sind jeweils immer Ganztonbendings!
     
  3. patrice

    patrice Registrierter Benutzer

    Im Board seit:
    26.12.04
    Zuletzt hier:
    25.09.07
    Beiträge:
    865
    Ort:
    Melchnau (CH)
    Zustimmungen:
    1
    Kekse:
    350
    Erstellt: 09.01.05   #3
    E|-----------------------------------------------------------------5---8v
    B|----------------------------------------------------5------8b----------
    G|---------------------5----------------7-----5--------------------------
    D|------------5------------7-----5v--------------------------------------
    A|--5---7----------7-----------------------------------------------------
    E|------------------------------------------------------------------------

    b = Bending einen Halbtonschritt nach oben
    v = Vibrato

    Das hab' ich einmal zusammengeklimpert :D
    Ich bin ein grottenschlechter Komponist möchte ich noch sagen :p
    Ich kann' mich wohl auch noch zu den Anfänger'n zählen, denke ich...

    M.F.G.
    Patrice
     
  4. Deffi

    Deffi Registrierter Benutzer

    Im Board seit:
    17.12.04
    Zuletzt hier:
    12.10.11
    Beiträge:
    425
    Ort:
    bei stuttgart
    Zustimmungen:
    1
    Kekse:
    10
    Erstellt: 09.01.05   #4
    wär vllt noch ganz sinnvoll wenn ihr bei den bendings in klammern hisnchreibt, wohin die saite gezogen werden soll, also ob nen halb oder ganztonschritt ^^
     
  5. nermin

    nermin Threadersteller Registrierter Benutzer

    Im Board seit:
    23.11.04
    Zuletzt hier:
    25.03.16
    Beiträge:
    857
    Zustimmungen:
    0
    Kekse:
    71
    Erstellt: 09.01.05   #5
    Also ich finde eure Sachen schon sehr gut,die vom fender muss ich noch üben,aber wie findet ihr meins,da müssen glaube ich noch pausen rein,aber egal wie mans spielt,es glingt gut,fine ich,man kann auch sehr viel variieren.
    Achsowie kann ich sounbeispiele aufnehmen und hier reinstellen?Ich hab ein mikrofon,reicht das?
     
  6. _Fender_

    _Fender_ Registrierter Benutzer

    Im Board seit:
    07.01.05
    Zuletzt hier:
    4.03.06
    Beiträge:
    126
    Zustimmungen:
    0
    Kekse:
    10
    Erstellt: 09.01.05   #6
    Hm kommt drauf an was es für ein Mikrofon ist, sollte nicht so brummen! Komischerweise kann man mit vielen Headset Mikrophonen sehr gut aufnehmen liegt wahrscheinlich an dem "Windschutz" der da vorne dran ist. Son richtiges Mikrophon wär natürlich besser muss jetzt nicht sein :great:

    Musst ein bisschen austüfteln wie dicht du es an den Verstärker stellst ;-)
     
  7. nermin

    nermin Threadersteller Registrierter Benutzer

    Im Board seit:
    23.11.04
    Zuletzt hier:
    25.03.16
    Beiträge:
    857
    Zustimmungen:
    0
    Kekse:
    71
    Erstellt: 09.01.05   #7
    Also es ist schon ein gutes mikrofon,aber wie nehm ich jetzt auf und stell das hier rein???Muss ich da Mikro irgendwo an den Pc anschliesen???Ich habe außerdem ein richtiges Mikrophon
     
  8. Deffi

    Deffi Registrierter Benutzer

    Im Board seit:
    17.12.04
    Zuletzt hier:
    12.10.11
    Beiträge:
    425
    Ort:
    bei stuttgart
    Zustimmungen:
    1
    Kekse:
    10
    Erstellt: 09.01.05   #8
    naja
    wenn du es nicht an den pc anschliesst wirds kaum gehn ^^
    hinten am pc is nen mikro stöpsel
    aber ich weiss nicht ob da alle reinpassn
    hab grad mal aufnehmn mit meinem headset versucht
    wenn man den amp aufdreht
    und das headset direkt davor legt kommt ne erstaunlich gute quali raus Oo
     
  9. nermin

    nermin Threadersteller Registrierter Benutzer

    Im Board seit:
    23.11.04
    Zuletzt hier:
    25.03.16
    Beiträge:
    857
    Zustimmungen:
    0
    Kekse:
    71
    Erstellt: 09.01.05   #9
    Also ich habs jetzt angeschlossen,aber wie nehm ich jetzt auf???Brauch ich da ein Programm???
     
  10. _Fender_

    _Fender_ Registrierter Benutzer

    Im Board seit:
    07.01.05
    Zuletzt hier:
    4.03.06
    Beiträge:
    126
    Zustimmungen:
    0
    Kekse:
    10
    Erstellt: 09.01.05   #10
    Naja kannst den Windoof Rekorder nehmen :

    Start -> Programme -> Zubehör -> Unterhaltungsmedien -> Audiorekroder

    Gibt auch bessere Programme aber für den Anfang sollte es reichen.
     
  11. nermin

    nermin Threadersteller Registrierter Benutzer

    Im Board seit:
    23.11.04
    Zuletzt hier:
    25.03.16
    Beiträge:
    857
    Zustimmungen:
    0
    Kekse:
    71
    Erstellt: 09.01.05   #11
    Also es geht nicht,ich habe das Mikrophon angeschlossen aber es kommt nicht mal "neue Harware gefunden",und es kann gar nichts aufnehmen.Ich hab es in einen eingang hinten ain den computer gesteckt,wo ein Mikrophon zu sehen ist...
     
  12. harvi

    harvi Registrierter Benutzer

    Im Board seit:
    18.08.03
    Zuletzt hier:
    6.12.07
    Beiträge:
    740
    Ort:
    Darmstadt
    Zustimmungen:
    2
    Kekse:
    159
    Erstellt: 09.01.05   #12
    das hier hab ich mal aus Laune heraus geschrieben:


    ------------0-----------------0----------------0------------------0-------
    ----------6---6-------------6---6-----------6----6-------------6----6----
    --------7--------7--------7-------7-------7---------7--------6--------6--
    ---0----------------------------------------------------------------------
    -----------------------------------------------------------0--------------
    ----------------------8----------------6----------------------------------


    Die basstöne sollten Liegenbleiben damit sie schön ausklingen

    die Töne die auf den oberen drei saiten gespielt werden brauchen vibrato bis zum erbrechen damit es sich so schön exotisch anhört, wie ich finde ;)

    das ganze lässt sich auch gut in anderen rhythmen spielen, antürlich..schneller, ohne punktierungen z.B.

    Greetz
     
  13. nermin

    nermin Threadersteller Registrierter Benutzer

    Im Board seit:
    23.11.04
    Zuletzt hier:
    25.03.16
    Beiträge:
    857
    Zustimmungen:
    0
    Kekse:
    71
    Erstellt: 09.01.05   #13
    kann mir denn keiner wegen dem mikrofon helfen,ich tue das für euch,damit ihr auch hört,wie sich meine erfundenen sachen anhören.danke
     
  14. iron maiden

    iron maiden Registrierter Benutzer

    Im Board seit:
    07.11.03
    Zuletzt hier:
    4.12.09
    Beiträge:
    507
    Zustimmungen:
    1
    Kekse:
    10
    Erstellt: 09.01.05   #14
    Kristal ist gut. und freeware.

    mir is letztens ne ganz schön anspruchsvolle technikübung eingefallen.
    also.

    e---------------------------------------------------------------
    h--------------------------------------------------------------
    g-------------------------------------------------------SIMILE
    d------------8----------------------------9--------------------
    a--7--9--10-----10--9--7------7--8--10-----10--8--7----------
    e---------------------------------------------------------------

    joa das braucht ganz schön konzentration erstmal. aber wenn man sich dran gewöhnt hat gehts. also ebend n paar mal wiederholen(simile) .
     
  15. kokonik

    kokonik Registrierter Benutzer

    Im Board seit:
    19.06.04
    Zuletzt hier:
    26.12.06
    Beiträge:
    78
    Ort:
    .at
    Zustimmungen:
    0
    Kekse:
    10
    Erstellt: 09.01.05   #15
    Neue Hardware gefunden kommt bei einem normalen Mikrofon nicht, ist schon richtig. Geh mal unter Zubehör -> Unterhaltungsmedien -> Lautstärke (bei Windows XP). Dann bei Optionen Aufnahme anklicken, dort ein Häkchen bei Mikrofon (falls noch keines dort ist). Dann kannst du die Aufnahmelautstärke des Mikrofons regulieren.
     
  16. redruM

    redruM Registrierter Benutzer

    Im Board seit:
    21.02.04
    Beiträge:
    379
    Zustimmungen:
    0
    Kekse:
    90
    Erstellt: 09.01.05   #16
    hast du in den windows sound einstellungen auch aufnahme da aktiviert ??
     
  17. nermin

    nermin Threadersteller Registrierter Benutzer

    Im Board seit:
    23.11.04
    Zuletzt hier:
    25.03.16
    Beiträge:
    857
    Zustimmungen:
    0
    Kekse:
    71
    Erstellt: 09.01.05   #17
    Also microphon war angestellt,aber ich musste des erst von wiedergabe auf aufnahme stellen.Ich probiers gleich aus und wenns geht stell ich hier ne aufnahme von meinem erfundenem rein:)
     
  18. nermin

    nermin Threadersteller Registrierter Benutzer

    Im Board seit:
    23.11.04
    Zuletzt hier:
    25.03.16
    Beiträge:
    857
    Zustimmungen:
    0
    Kekse:
    71
    Erstellt: 09.01.05   #18
    Also es geht immernoch net,ich probier des immer mit meiner stimme aus,ist das zu leise?Soll ich das über verstärker testen???Und windows sound irgenwas umstellen,ich weis netmal wo das ist,bitte etwas genauer erklären.
    also,ich habe das programm kristal auto engine gesehen und denke es ist vielleicht etwas zu kompliziert für mich,werde es aber gleich ausprobieren.
     
  19. _Fender_

    _Fender_ Registrierter Benutzer

    Im Board seit:
    07.01.05
    Zuletzt hier:
    4.03.06
    Beiträge:
    126
    Zustimmungen:
    0
    Kekse:
    10
    Erstellt: 09.01.05   #19
    Hmm also folgendermaßen :

    1.
    Start -> Systemsteuerung -> Sounds, Sprachein/-ausgabe und Audiogeräte -> Sounds und Audigeräte

    2.
    Nun müsste sie ein Fenster öffnen mit folgenden Karteireitern
    "Lautstärke | Sounds | Audio | Stimme | Hardware "

    Du klickst auf "Audio"

    Nun bist du in einem Menü, in dem du die Soundwiedergabe, die Soundaufnahme und die Midi-Musikwiedergabe steuern kannst.

    3.
    Das mittlere Kästchen müsste den Namen "Soundaufnahme" haben, hier klickst du auf "Lautstärke"

    Nun öffnet sich eine Art graues Mischpult! Suche hier ein Feld das "Mic oder Mikrophone" heißt, klicke auf "Auswählen" und setze die Lautstärke hoch.

    Nun müsste das Aufnehmen mit dem Windowsaudiorekorder funktionieren.

    4. (Optional)
    Wenn du auch noch deine Stimme hören möchtest, verlasse das Mischpult und begib dich wieder zu Punkt 2. Wähle nun statt der Lautstärke der Soundaufnahme, die Lautstärke der Soundwiederhabe aus, der Knopf ist im obersten Kästchen. Hier musst du nun erneut das Mic oder Mikrophon jenachdem wie es bei dir heißt, auswählen. Setze auch hier die Lautstärke entsprechend nach oben.



    So funktioniert das jedenfalls bei mir! :great:


    Hoffe geholfen zu haben :)
     
  20. nermin

    nermin Threadersteller Registrierter Benutzer

    Im Board seit:
    23.11.04
    Zuletzt hier:
    25.03.16
    Beiträge:
    857
    Zustimmungen:
    0
    Kekse:
    71
    Erstellt: 09.01.05   #20
    Es funktioniert bei mir trotzdem nicht,außerdem hab ich das schon so eingestellt gehabt.Also ich mach mal ein paar screenshots.Also wie man sieht habe ich noch eine Datei auf dem desktop namens "neu WAVE-Audiodate".Auf der klicke ich mit der rechten maustaste und drücke aufnehmen,dan öffnet sich der windoof rekorder und ich drücke auf den Punkt und spreche ins mikro.Dann dücke ich die Stopp-Taste und will es abspielen und es spielt was ab,aber ich höre nix.Was ist falsch?
    Hier ist jetzt ein WAv-Sound,schaut einfach mal ob man was hört.Es ist übrigens ein Zip-File
     
Die Seite wird geladen...

mapping