eric clapton - cocaine

von daniel.at, 12.11.04.

  1. daniel.at

    daniel.at Registrierter Benutzer

    Im Board seit:
    21.01.04
    Zuletzt hier:
    26.05.11
    Beiträge:
    1.378
    Ort:
    wien, münchen
    Zustimmungen:
    3
    Kekse:
    82
    Erstellt: 12.11.04   #1
    hi!... kennt wer das lied ? ( vielleicht blackz? :rolleyes: ) :)
    nun ja suche eine gut tabseite. und wenn wer ein soundfile online stellen könnte wäre das ganz lieb weil ich die cd leider als ich klein war am flohmarkt verkauft hab ^^ und naja mein pc is virus total.... für ien lied möcht ich mir nicht wiedr das album kaufen.
    thx :)
     
  2. daniel.at

    daniel.at Threadersteller Registrierter Benutzer

    Im Board seit:
    21.01.04
    Zuletzt hier:
    26.05.11
    Beiträge:
    1.378
    Ort:
    wien, münchen
    Zustimmungen:
    3
    Kekse:
    82
    Erstellt: 12.11.04   #2
    hm noch eine frage : hat jemand tabs zu songs die BB king mit eric clapton gemacht hat ? weil da find ich auch rein gar nichts... gibts hier irgendwo nen blues freak der das online stellen kann?
     
  3. Domo

    Domo Helpful & Friendly User HFU

    Im Board seit:
    31.08.03
    Zuletzt hier:
    20.09.16
    Beiträge:
    10.963
    Zustimmungen:
    77
    Kekse:
    13.607
    Erstellt: 12.11.04   #3
    aber selbstverständlich kenn ich den song... ich lieeeeeebe clapton's musik :great: den song als midi habe ich dir angehängt, hier die tabs des mainriffs....

    Rythm

    E||------------------------|------------------|-----------------------|
    B||------------------x-----|------------------|-----------------------|
    G||--9--9--7--9------x--7--|------------------|--9--9--7--9--------7--|
    D||--9--9--7--9------x--7--|------------------|--9--9--7--9--------7--|
    A||--7--7--5--7---------5--|------------------|--7--7--5--7--------5--|
    E||------------------------|------------------|-----------------------|



    ------------------|------------------------|------------------|
    ------------------|------------------x-----|------------------|
    ------------------|--9--9--7--9------x--7--|------------------|
    ------------------|--9--9--7--9------x--7--|------------------|
    ------------------|--7--7--5--7---------5--|------------------|
    ------------------|------------------------|------------------|



    ------------------------|------------------||
    ------------------x-----|------------------||
    --9--9--7--9------x--7--|------------------||
    --9--9--7--9------x--7--|------------------||
    --7--7--5--7---------5--|------------------||
    ------------------------|------------------||

    Lead

    E||-----------------------|-------------------------------|--------------------|
    B||-----------------------|-------------------------------|--------------------|
    G||--9--9--7--9--------7--|-------------------------------|--------------------|
    D||--9--9--7--9--------7--|--------------------------0----|--0-2---------------|
    A||--7--7--5--7--------5--|----------0-2-0-2-0-2-0-2------|--------------------|
    E||-----------------------|-------------------------------|--------------------|



    -------------------------|-------------------|-------------------------|
    -------------------------|-------------------|-------------------------|
    -------------------------|-------------------|--7----------------------|
    ----0--------0-----------|--2----------------|----9---7----5--6--------|
    --------0-2-----0--------|-------------------|-------------------7--5--|
    -------------------3--0--|-------------------|-------------------------|



    --------------------|-----------------------||
    --------------------|-----------------------||
    --------------------|-----------------------||
    --------------------|-------0-0-------------||
    --7------------7/---|--0-2----0-------------||
    --------------------|--------------3b-------||

    mfg
    BlackZ

     

    Anhänge:

  4. daniel.at

    daniel.at Threadersteller Registrierter Benutzer

    Im Board seit:
    21.01.04
    Zuletzt hier:
    26.05.11
    Beiträge:
    1.378
    Ort:
    wien, münchen
    Zustimmungen:
    3
    Kekse:
    82
    Erstellt: 12.11.04   #4
    format error :( ....
    hm und ich finde keine tabs zu days of old weiss aber nicht ob die bb king oder clapton gemacht hat... hab zu keinen von beiden was gefunden... aber da hab ich wenigstens das live album! .... aber da find i keine tabs...
     
  5. roastbeef

    roastbeef Registrierter Benutzer

    Im Board seit:
    30.11.03
    Zuletzt hier:
    25.07.16
    Beiträge:
    3.424
    Ort:
    Graz
    Zustimmungen:
    72
    Kekse:
    4.088
    Erstellt: 13.11.04   #5
    tabs?
    suche unter mysongbook.com!
    oder powertabs.net
     
Die Seite wird geladen...

mapping