Eugene's Trick Bag - Wie spielt ihr das ...

  • Ersteller Blumenhund
  • Erstellt am
B

Blumenhund

Registrierter Benutzer
Zuletzt hier
15.12.16
Mitglied seit
18.08.03
Beiträge
897
Kekse
50
HI
Also hab grad mit dem Teil angefangen aber jetzt komm ich grad nich weiter ..... ich würd gern wissen wie ihr das spiel ( FINGERSÄTZE ).

---------------------10-13-10---------------------
------------------10-----------10------------------
------------7-10------------------10-7------------
----------7-----------------------------------------
-----5-8--------------------------------------------
--5--------------------------------------10-7-10--

THX
 
M

moo

Registrierter Benutzer
Zuletzt hier
07.04.08
Mitglied seit
20.08.03
Beiträge
516
Kekse
41
------------------------------------10(4)-13(4)-10(4)--
------------------------------10(4)----------------------
--------------------7(1)--10(4)--------------------------
-----------------7(1)-------------------------------------
-------------8(2)-----------------------------------------
-5(1)--10(4)---------------------------------------------

und genauso zurueck... (in Klammern die Fingersaetze)
Bei den beiden kleinen Barrees achte darauf das die Noten nicht laenger als noetig klingen, musst zB mit dem kleinen Finger etwas "rollen".
 
L

littlewing

Gesperrter Benutzer
Zuletzt hier
13.03.06
Mitglied seit
19.08.03
Beiträge
1.692
Kekse
157
[code:1]

-----------------------------10(1)-13(4)-10(1)---------------
--------------------------10(3)--------------10(2)-------------
----------------7(1)-10(2)----------------------10(3)-7(1)-
------------7(1)-----------------------------------------7(1)
---5(1)8(4)-------------------------------------------------8(2)
5(1)------------------------------------------------------------10(4)

1-zeigefinger
2-mittelfinger usw...

ich spiels so
lw.
sry fuer die vielen edits, scheiss zeilenumbruch!!!
lw.
[/code:1]
 
L

littlewing

Gesperrter Benutzer
Zuletzt hier
13.03.06
Mitglied seit
19.08.03
Beiträge
1.692
Kekse
157
verdammt@moo ;)
lw.
 
Xyphelmuetz

Xyphelmuetz

Registrierter Benutzer
Zuletzt hier
05.04.10
Mitglied seit
11.09.03
Beiträge
442
Kekse
38
Hm entweder so wie du oder:

------------------------10-13-10--------------------
--------------------10-------------10----------------
----------------10---------------------10------------
----------7-12----------------------------12-7------
--------8---------------------------------------------
--5-10------------------------------------------10-8

Weniger gerutsche aber größere abstände (kommt halt auf die finger an)
 
mnemo

mnemo

Registrierter Benutzer
Zuletzt hier
20.03.21
Mitglied seit
19.08.03
Beiträge
5.395
Kekse
9.344
Ort
Berlin
Mit Barré, ist es am einfachsten! Spiels mit Barré!
 
thomas.h

thomas.h

Registrierter Benutzer
Zuletzt hier
01.10.17
Mitglied seit
19.08.03
Beiträge
2.901
Kekse
5.492
wenn du mit kleiner Unsauberkeit leben kannst, dann Barree.

Ps: ...an dieser Stelle möchte ich die 7-Saiter-Spieler grüßen!! :D
 
Crusher

Crusher

Mod Emeritus
Ex-Moderator
Zuletzt hier
06.03.16
Mitglied seit
18.08.03
Beiträge
1.799
Kekse
80
Ort
Deutschland
pim schrieb:
wenn du mit kleiner Unsauberkeit leben kannst, dann Barree.

Ps: ...an dieser Stelle möchte ich die 7-Saiter-Spieler grüßen!! :D

Wieso? Die müssen die 7. saite ja beim barré nicht "mitbarrén".
 
thomas.h

thomas.h

Registrierter Benutzer
Zuletzt hier
01.10.17
Mitglied seit
19.08.03
Beiträge
2.901
Kekse
5.492
das nicht, aber man braucht nicht vom 5. auf den 13. bund wechseln! ausser man will es ganz true spielen...
 
mnemo

mnemo

Registrierter Benutzer
Zuletzt hier
20.03.21
Mitglied seit
19.08.03
Beiträge
5.395
Kekse
9.344
Ort
Berlin
Man muß Barré auch spielen können, sonst hört sich natürlich bescheiden an. Ob man jetzt mit dem Zeigefinger den Barré spielt und einen Lagenwechsel macht oder mit dem Ringfinger ohne Lagenwechsel ist schnurz, hauptsache man spielts sauber.
 

Ähnliche Themen

Unser weiteres Online-Angebot:
Bassic.de · Deejayforum.de · Sequencer.de · Clavio.de · Recording.de

Musiker-Board Logo
Oben