Fingerübungen?

von thinwath, 16.04.04.

  1. thinwath

    thinwath Registrierter Benutzer

    Im Board seit:
    16.04.04
    Zuletzt hier:
    16.03.15
    Beiträge:
    4
    Zustimmungen:
    0
    Kekse:
    10
    Erstellt: 16.04.04   #1
    Hallo Leute,
    ich bin nun schon seit 2 Monaten dabei, das Gitarre spielen zu erlenen, ich hab aber leider ein paar Probleme mit meinen Finger, es ist mir fast unmöglich, meine Finger unabhängig von einander zu koordinieren, dass macht das Griffwechseln nicht sonderlich einfacher, ich bin eben zu langsam. Gibt es ein paar Übungen, damit ich meine Finger trainieren kann?

    Danke Euch.
     
  2. Terence Hill

    Terence Hill Registrierter Benutzer

    Im Board seit:
    17.11.03
    Zuletzt hier:
    24.07.05
    Beiträge:
    444
    Ort:
    Manching
    Zustimmungen:
    0
    Kekse:
    10
    Erstellt: 16.04.04   #2
    Sowas hatten wir schon tausendmal. Frag mal die Suchfunktion!
    Üben Üben Üben!

    :)
     
  3. Haianson

    Haianson Registrierter Benutzer

    Im Board seit:
    14.10.03
    Zuletzt hier:
    14.04.11
    Beiträge:
    988
    Zustimmungen:
    1
    Kekse:
    3.255
    Erstellt: 16.04.04   #3
    mmmhhh ich weiss net ob dir dass was hilft aber posts trotzdem ma :
    bzw ich hoffe das ist das was du meinst :D


    1234
    4321
    1324
    4231

    aber generell dauerts am anfang eben en bissel bis man die akkorde gescheit und schnell greifen kann
    da kann man wirklich nur sagen: üben üben üben
    wär doch auch net schön wenn man garnix dafür machen müsst.....
     
  4. sgler

    sgler Registrierter Benutzer

    Im Board seit:
    19.02.04
    Zuletzt hier:
    2.06.05
    Beiträge:
    278
    Zustimmungen:
    1
    Kekse:
    12
    Erstellt: 16.04.04   #4
    wenn du nach 2 Monaten noch nicht die Finger so bewegen kannst wie du willst macht das gar nichts!!!! Übung macht den meister!!! üben üben üben!!!!
     
  5. MasterMind

    MasterMind Registrierter Benutzer

    Im Board seit:
    19.12.03
    Zuletzt hier:
    16.03.13
    Beiträge:
    284
    Ort:
    München
    Zustimmungen:
    6
    Kekse:
    360
    Erstellt: 16.04.04   #5
    ich hätte da was für alle, die nach guten übungen suchen:

    besorge dir guitar pro und gehe dann auf www.mysongbook.com. scrolle etwas runter und klicke dann links auf "exercises". hier findest du recht viele themen mit übungen.

    mein tipp: klicke auf "heavy metal guitar school". auf der zweiten seite findest du dann die Parts I bis XIII, welche je nach können recht gute übungen sind.
     
  6. thinwath

    thinwath Threadersteller Registrierter Benutzer

    Im Board seit:
    16.04.04
    Zuletzt hier:
    16.03.15
    Beiträge:
    4
    Zustimmungen:
    0
    Kekse:
    10
    Erstellt: 16.04.04   #6
    Danke euch erstmal!
    Mir ist schon klar, dass man jede Menge üben muss. Das mache ich dann gleich mal weiter... Danke nochmal!
     
  7. allrounder

    allrounder Registrierter Benutzer

    Im Board seit:
    25.03.04
    Zuletzt hier:
    6.11.14
    Beiträge:
    58
    Zustimmungen:
    0
    Kekse:
    10
    Erstellt: 20.04.04   #7
    ich hab hier ne extended-übung, da kriegt man echt die krätze bei (darfst aber nicht aufgeben)

    D|-3-4-5-6-
    A|--------- usw,.. (gespielt mit Z, R, M, K, Z, R, M, K, usw...)
    E|1-2-3-4-5
     
  8. Comrade

    Comrade Registrierter Benutzer

    Im Board seit:
    19.02.04
    Zuletzt hier:
    4.01.14
    Beiträge:
    1.894
    Ort:
    Ingolstadt
    Zustimmungen:
    2
    Kekse:
    276
    Erstellt: 21.04.04   #8
    Solche chromatischen Übungen sind schrott..was sollen die bringen?
    In der realität kommts nicht vor das du vier Noten auf einer saite spielst.
    und beim Akkordgreifen sowieso nicht.Ausserdem wird er sich mit so einer Übung schwer tun und sie wird ein neues Problem darstellen.
    Also lieber das Problem an der Wurzel packen und AKKORDE üben...
    Schön langsam mit Konzentration ,dann klappt das!!!!
     
  9. eulenspiegel

    eulenspiegel Registrierter Benutzer

    Im Board seit:
    31.08.03
    Zuletzt hier:
    2.06.10
    Beiträge:
    59
    Zustimmungen:
    0
    Kekse:
    53
    Erstellt: 01.05.04   #9
    Da hilft nur üben, üben.......
    Ich hab eein paar Übungen auf meiner Seite
    www.gitarrenfibel.de
     
  10. sandman44

    sandman44 Registrierter Benutzer

    Im Board seit:
    25.03.04
    Zuletzt hier:
    26.09.06
    Beiträge:
    197
    Zustimmungen:
    0
    Kekse:
    10
    Erstellt: 04.05.04   #10
    moen
    probier mal folgende übung:
    fingersatz 1-2-3-4 auf irgendeiner saite (fürn anfang egal)
    und dabei probierst du, immer nur den finger weitersetzen, der als nächstes dran is (spitzname dieser übung "die spinne"
     
  11. kleinershredder

    kleinershredder Registrierter Benutzer

    Im Board seit:
    23.02.04
    Zuletzt hier:
    20.06.11
    Beiträge:
    2.569
    Ort:
    Kierspe
    Zustimmungen:
    8
    Kekse:
    698
    Erstellt: 10.05.04   #11
    Spinne
    ------------1-4-3-2--------------------------1-4-3-2---------
    --1-4-3-2-----------1-4-3-2---------1-4-3-2---------1-4-3-2-
    -----------------------------1-4-3-2--------------------------
    -----------------------------3-2-1-4--------------------------
    --3-2-1-4-----------3-2-1-4---------3-2-1-4---------3-2-1-4-
    ------------3-2-1-4--------------------------3-2-1-4---------
    Der clou an der Sache ist der zeigefinger bleibt immer im ersten Bund, der Mittelfinger immer im 2., der Ringfinger immer im 3. und der kleine immer im 4.
    Und nich schummeln. Ansonsten hätt ich da noch was Lustiges
    -------10-10--------------5-5---------
    --------------------------------------
    -----8-------7----------7-----8------- Und von vorne
    ---7-----------8------8---------7-----
    ---------------------------------------
    -5---------------5-10-------------10--
    Und immer schön die Finger liegen lassen ;)

    Und mal was für die rechte Hand
    -------5-9-5-----------------3-7-3---------------
    -----5-------5------------3---------3-----------
    ---5--5-----5--5-------3---3------3----3-------
    -7--7---------7--7---7--7------------5----5-----
    --7-------------7-----5------------------5------
    5-----------------5-3-----------------------3---

    Und immer alles ganz langsam und sauber üben
     
  12. Dizzy Reed

    Dizzy Reed Registrierter Benutzer

    Im Board seit:
    06.02.04
    Zuletzt hier:
    21.10.08
    Beiträge:
    472
    Zustimmungen:
    2
    Kekse:
    142
    Erstellt: 10.05.04   #12
    Code:
    G|-----4-----5----6---7---8----9----10----------
    D|----3-----4----5---6---7----8----9-----------
    A|---2-----3----4---5---6----7----8------------
    E|--1-----2----3---4---5----6----7-------------
    Das ganze aber so, dass du richtig mit deinen Fingern draufhaust, man richtig hört wie du die Saiten aufschlägst (Hammer On). Das ganze nat. mit Z, M, R und Kl. Und dann wieder zurück.
     
  13. StompBoxLover

    StompBoxLover Registrierter Benutzer

    Im Board seit:
    09.02.04
    Zuletzt hier:
    11.05.04
    Beiträge:
    383
    Zustimmungen:
    3
    Kekse:
    11
    Erstellt: 10.05.04   #13
    ich mag die hier:

    E||---------------------------|--------------------------|
    B||---------------------------|--------------------------|
    G||*--------------------------|--------------2--3--4--5--|
    D||*--------------------------|--3--4--5--6--------------|
    A||---------------4--5--6--7--|--------------------------|
    E||---5--6--7--8--------------|--------------------------|



    --------------1--2--3--4--|--5--4--3--2--------------|
    --2--3--4--5--------------|--------------6--5--4--3--|
    --------------------------|--------------------------|
    --------------------------|--------------------------|
    --------------------------|--------------------------|
    --------------------------|--------------------------|



    --------------------------|---------------------------||
    --------------------------|---------------------------||
    --6--5--4--3--------------|--------------------------*||
    --------------7--6--5--4--|--------------------------*||
    --------------------------|--8--7--6--5---------------||
    --------------------------|--------------9--8--7--6---||

    und:

    (Fingering immer 1 2 3 4 lagenwechsel 1 2 3 4...)

    E||------------------------------------|
    B||------------------------------------|
    G||------------------------------------|
    D||------------------------------------|
    A||------------------4-5-6-7-8-9-10-11-|
    E||--1-2-3-4-5-6-7-8-------------------|


    -----------------------------------------------|
    -----------------------------------------------|
    -----------------------10-11-12-13-14-15-16-17-|
    --7-8-9-10-11-12-13-14-------------------------|
    -----------------------------------------------|
    -----------------------------------------------|



    --------------------------17-18-19-20-|
    --14-15-16-17-18-19-20-21-------------|
    --------------------------------------|
    --------------------------------------|
    --------------------------------------|
    --------------------------------------|
     
Die Seite wird geladen...

mapping