Frage zu "Around the World" Tab


Flak
Flak
Registrierter Benutzer
Zuletzt hier
14.01.12
Registriert
19.06.07
Beiträge
168
Kekse
103
Ort
Saarland
hallo,

ich versuche gerade Around the World von Daft Punk nachzuspielen. Bis auf eine Stelle ist das auch kein Problem, daher möchte ich euch hier um rat Fragen.
Besagte Stelle begint ab Minute 2:05 http://www.youtube.com/watch?v=bf5x3LtWzVA

Das hier ist der Tab nach dem ich Spiele

Code:
     R I R  I R I I I R I R  IR I M M P I/I  R I R I R I R I I R 
G  :--7-9*-7-9*7*7 7 9|--- --- --- --- ----|--7-9*7-9*7 9*7 7 9|
D  :-------------- - -|--10--10--- --107/5-|----------- --- - -|
A  :7------------- - -|--- --- --- --- ----|7---------- --- - -|
E  :-------------- - -|8*- -8- 8*7 7*- ----|----------- --- - -|
B  :-------------- - -|--- --- --- --- ----|----------- --- - -|
    1 a 2 a 3 a 4  a   1 a  2  a 3  a  4 a  1 a 2 a 3 a  4  a   
    I R  IR I M M I/I
G  :--- --- ----------|
D  :--10--10------7/5-|
A  :--- --- ----------|
E  :8*- -8- 8*7*7*----|
B  :--- --- ----------|
    1 a  2  a 3 a 4 a
Und mein Problem ist der 2. Takt in diesem Tab, mein Gehör sagt mir dass das nicht mit dem Video übereinstimmt. Da Stimmen ein oder 2 Noten nicht und das wirft mich immer komplett raus.

Kann mich da jemand in meiner Vermutung bestätigen und mir vielleicht sogar die richtigen Noten nennen?
Das wäre echt klasse :)

mfg Flak
 
Eigenschaft
 
tigereye
tigereye
Registrierter Benutzer
Zuletzt hier
16.01.17
Registriert
12.02.06
Beiträge
1.034
Kekse
4.834
Ort
kurz hinterm Deich
Kann mich da jemand in meiner Vermutung bestätigen und mir vielleicht sogar die richtigen Noten nennen?
Das wäre echt klasse :)

mfg Flak

Ich habe es mir nicht angehört, aber bei 911tabs habe ich das gefunden:

Artist: Daft Punk

h - Hammer-on
/ - Slide (up or down)
x - Dead note/ghost note

Intro

G|---------------------------|
D|--2-4--2-------------------|
A|----------5--3--2----------|
E|-------------------5--3----|


Verse (00:31)

G|-------------------------------------------------------------------|
D|------------------------------2--2--2--2--2-4--2-------------------|
A|--------------2-3--3--3--3--5---------------------5--3--2----------|
E|--5--5--5--5-----------------------------------------------5--3----|

Chorus Bit (1:58)

This is really fun to play (below: thats all in 1 slide)

G|----7-9--7-x-7-x-7h9--------------------------------|
D|-------------------------10-----10---10---9--7/9/5--|
A|--7-------------------------------------------------|
E|-----------------------8------8-----8----7-----------|


Vllt. hilft's ja ...
 
Flak
Flak
Registrierter Benutzer
Zuletzt hier
14.01.12
Registriert
19.06.07
Beiträge
168
Kekse
103
Ort
Saarland
@tigereye diesen tab habe ich auch schon probiert, aber der passt noch weniger denke ich. aber trotzdem vielen dank für deine mühe :great:

ich habe jetzt mal noch ein wenig mit GP5 herumprobiert und folgender Tab klingt für mich am korrektesten, wobei ich da noch nicht 100% zufrieden bin.
Code:
     E  E  Q    S E  E  S S S    E   E  S  S E  E  S S E   E   
G||-----7--9----7-7--7--7-7-9-|-------------------------------|
D||---------------------------|-----10----10-----------7S--5--|
A||--7------------------------|-------------------------------|
E||---------------------------|--8------8----8--7--7-7--------|


  E  E  E  E  E  S E  S S S    E   E  S  S E  E  E  E   E     
-----7--9--7--9--7-9--7-7-9-|-------------------------------||
----------------------------|-----10----10----------7S--5--*||
--7-------------------------|------------------------------*||
----------------------------|--8------8----8--7--7----------||

Duration Legend
---------------
W - whole
H - half
Q - quarter
E - 8th
S - 16th

Vielleicht kann das ja mal jemand ausprobieren und mir seine Meinung sagen.
 

Ähnliche Themen


Neue Themen

Unser weiteres Online-Angebot:
Bassic.de · Deejayforum.de · Sequencer.de · Clavio.de · Guitarworld.de · Recording.de

Musiker-Board Logo
Oben