Gitarre an Soundkarte (Pc) anschliessen?

S

Stree

Registrierter Benutzer
Zuletzt hier
07.12.03
Mitglied seit
03.12.03
Beiträge
8
Kekse
0
Hallo!


Ein Freund hat seinen E-Bass an seine Soundkarte am PC angeschlossen. Dazu holte er sich einfach den passenden Adapter.

Ich wollte jetzt wissen ob dass auch mit der E Gitarre klappen könnte? Ich mein ob ich da nicht irgendwas zerstöre oder ob die Soundkarte zu schwach ist.

Vielen Dank im Vorraus für eure Antworten!

mfg
David
 
Domo

Domo

Helpful & Friendly User
HFU
Zuletzt hier
31.01.21
Mitglied seit
31.08.03
Beiträge
10.924
Kekse
14.087
Ort
Hamburg
passieren kann nichts, aber es klingt scheisse. es sei denn du hast eine extra für sowas gemachte soundkarte, die kosten aber einiges... :rolleyes:
 
S

Stree

Registrierter Benutzer
Zuletzt hier
07.12.03
Mitglied seit
03.12.03
Beiträge
8
Kekse
0
in wiefern scheisse klingt es?

zu leise oder kratzig oder wie?

Der Verstärker den ich bestellt habe der kommt erst in 2 wochen oder so und bis dahin möcht ich aber spielen.. Die Gitarre kommt Dienstag und da möcht ich dann loslegen können :)
 
magge

magge

Registrierter Benutzer
Zuletzt hier
29.11.16
Mitglied seit
19.08.03
Beiträge
1.595
Kekse
362
Ort
Wiesbaden
ich mach das so und bei mir bleibt immer ein restbrummen...kannst dir ja mal meine samples anhörn, dann weißt du was ich meine ; )
 
LennyNero

LennyNero

HCA Gitarre: Racks & MIDI
Ex-Moderator
HCA
Zuletzt hier
25.01.21
Mitglied seit
02.12.03
Beiträge
17.537
Kekse
35.772
Ort
Wetzlar
Stree schrieb:
in wiefern scheisse klingt es?

zu leise oder kratzig oder wie?

Der Verstärker den ich bestellt habe der kommt erst in 2 wochen oder so und bis dahin möcht ich aber spielen.. Die Gitarre kommt Dienstag und da möcht ich dann loslegen können :)

Kratzig und viel zu leise, wenn du es dann lauter drehst hast du mit Sicherheit Rauschen ohne Ende.

Spass machen tut das nicht ;)

Warte auf deinen Amp und spiele solange 'unplugged'.
 
dside

dside

Registrierter Benutzer
Zuletzt hier
02.02.10
Mitglied seit
20.08.03
Beiträge
616
Kekse
453
Ort
karlsruhe
ich bin nicht ganz euerer meinung.Ich nehme nur über pc mit standart soundkarte auf und bin der meinung das es sich doch ganz erträglich anhört.


die links kopieren und in den browser oben einfügen sonst gehts net

http://mitglied.lycos.de/dside111/1.mp3
http://mitglied.lycos.de/dside111/2.mp3
http://mitglied.lycos.de/dside111/3.mp3
http://mitglied.lycos.de/dside111/4.mp3
http://mitglied.lycos.de/dside111/m.mp3

bis denne

dside
 
S

Stree

Registrierter Benutzer
Zuletzt hier
07.12.03
Mitglied seit
03.12.03
Beiträge
8
Kekse
0
@dside

Welches Lied ist das 4.? Das klingt ziemlich gut! (also 4.mp3)

@all

Vielen Dank für eure Antworten! Werd jetzt vorerst mal mit Soundkarte spielen weil ich daran ja eh ne fette Anlage angeschlossen hab (die macht das vielleicht wieder wett *gg*)

danke jedenfalls..

mfg
 
LennyNero

LennyNero

HCA Gitarre: Racks & MIDI
Ex-Moderator
HCA
Zuletzt hier
25.01.21
Mitglied seit
02.12.03
Beiträge
17.537
Kekse
35.772
Ort
Wetzlar
dside schrieb:
ich bin nicht ganz euerer meinung.Ich nehme nur über pc mit standart soundkarte auf und bin der meinung das es sich doch ganz erträglich anhört.


die links kopieren und in den browser oben einfügen sonst gehts net

http://mitglied.lycos.de/dside111/1.mp3
http://mitglied.lycos.de/dside111/2.mp3
http://mitglied.lycos.de/dside111/3.mp3
http://mitglied.lycos.de/dside111/4.mp3
http://mitglied.lycos.de/dside111/m.mp3
dside

Die Links funktionieren (zumindest bei mir) nicht.

Welche Soundkarte nutzt du?
 
dside

dside

Registrierter Benutzer
Zuletzt hier
02.02.10
Mitglied seit
20.08.03
Beiträge
616
Kekse
453
Ort
karlsruhe
@Stree

ist ein übungsstück vom gitarren kurs

@lennynero

onboard soundkarte vom gigabyte 7vaxp mbord


du musst die links markieren mit rechte maustaste kopieren und oben in den browser einfügen und dann enter . sonst geht es nicht
 
S

Stree

Registrierter Benutzer
Zuletzt hier
07.12.03
Mitglied seit
03.12.03
Beiträge
8
Kekse
0
Das klingt irgendwie ziemlich gut gefällt mir :)
schade hätte gerne die noten dazu gehabt :) naja egal..

Ja welche Soundkarte du hast würde mich auch interessieren..
 
LennyNero

LennyNero

HCA Gitarre: Racks & MIDI
Ex-Moderator
HCA
Zuletzt hier
25.01.21
Mitglied seit
02.12.03
Beiträge
17.537
Kekse
35.772
Ort
Wetzlar
dside schrieb:
@Stree
@lennynero
du musst die links markieren mit rechte maustaste kopieren und oben in den browser einfügen und dann enter . sonst geht es nicht

Danka, hatte ich gemacht, wurde aber auf eine 404 umgelenkt... jetzt geht es :)
 
dside

dside

Registrierter Benutzer
Zuletzt hier
02.02.10
Mitglied seit
20.08.03
Beiträge
616
Kekse
453
Ort
karlsruhe
@ Stree

hier sind die noten


e-----------------------------------------------------------
b-----------------------------------------------------------
g-----------------------------------------------------------
d-----7-5---7-5-------5--(5)7----------------------------
a-------------------7--------------------------------------
e-----------------------------------------------------------

e-----------------------------------------------------------
b-----------------------------------------------------------
g----------------------5-------------------------------------
d-----7-5---7-5-----------(5)7----------------------------
a-------------------7--------------------------------------
e-----------------------------------------------------------

e-----------------------------------------------------------
b-----------------------------------------------------------
g-------7-5---7-5--------5-(5)7---------------------------
7---------------------7------------------------------------
a---------------------------------------------------------
e-----------------------------------------------------------

e-----------------------------------------------------------
b-----------------------------------------------------------
g-----------------------------------------------------------
d-----7-5---7-5-------5--(5)7----------------------------
a-------------------7--------------------------------------
e-----------------------------------------------------------


e----------------------------------------------------------
b------8-5--8-5-----------5---------------------------
g---------------------7-----------(5)7---------------------
d----------------------------------------------------------
a---------------------------------------------------------
e-----------------------------------------------------------


e-----------------------------------------------------------
b-----------------------------------------------------------
g-----------------------5------------------------------------
d-----7-5---7-5----------------------------------------
a-------------------7--------(5)7--------------------------
e-----------------------------------------------------------

die in klammern stehenden zahlen sind vorschlagnoten sie wird nur als effect kurz vor der sieben angespielt


viel spaß dabei
 
redrain

redrain

Registrierter Benutzer
Zuletzt hier
26.01.17
Mitglied seit
03.12.03
Beiträge
124
Kekse
38
soweit ich weiss kommt der sound erst richtig wenn er "mit Luft in berührung war" und dann aufgenommen wird. also amp und so...
 
dside

dside

Registrierter Benutzer
Zuletzt hier
02.02.10
Mitglied seit
20.08.03
Beiträge
616
Kekse
453
Ort
karlsruhe
der sound hat genug luft wenn er wieder aus dem lautsprecher kommt :D
 
S

Stree

Registrierter Benutzer
Zuletzt hier
07.12.03
Mitglied seit
03.12.03
Beiträge
8
Kekse
0
Mir ist gerade eingefallen..

ich hab ja an meiner Soundkarte einen Verstärker angeschlossen und an dem hängen zwei 200 Watt Boxen.

theoretisch könnte ich ja die Gitarre auch an den AMP anschliessen oder muss man da nen speziellen Verstärker haben?

@dside
VIELEN DANK FÜR DIE NOOOTEN :) danke!

mfg
 
dside

dside

Registrierter Benutzer
Zuletzt hier
02.02.10
Mitglied seit
20.08.03
Beiträge
616
Kekse
453
Ort
karlsruhe
ich hab das auch mal versucht den amp an den pc.

aabbberrr

ich hab nur eine peavey rage 158 schuhschachtel und der hats nicht wirklich gebracht.am besten gehts wenn du mit nem effect gerät direkt in den pc gehst.in meinem fall rocktron chameleon oder du besorgst dir den guitarport von line6 hab ich mir auch gerade zugelegt und bin voll begeistert von dem teil
 
Fischi

Fischi

Mod Emeritus
Ex-Moderator
Zuletzt hier
27.02.21
Mitglied seit
18.08.03
Beiträge
6.251
Kekse
18.990
direkt in die soundkarte??

dafür braucht ihr bei der gitzarre einen preamp mit boxensimulation.


beispielsweise

behringer v-amp
korg ax1500g

oder, wenn ihr zuviel geld habt )

POD XT
BOSS GT6



dann klingts auch gut
 
Z

zocker07

Registrierter Benutzer
Zuletzt hier
03.03.15
Mitglied seit
24.10.03
Beiträge
85
Kekse
0
Ort
Hamburg
Versuch es einfach, hab ich auch mal gemacht ( zuerst ) und is besser als garnix. ABER : klingt wirklich bescheiden. Direkt in einen normalen Verstärker geht zwar auch, ABER die Spannung der Gitarre ist zu gering und damit die Lautstärke zu niedrig... nun kann man einfach ma das Lautstärkepoti aufreissen... dann hasde aber Rauschen und die Dynamik is total für den ARxxx
 
Met@llicer

Met@llicer

Registrierter Benutzer
Zuletzt hier
02.02.21
Mitglied seit
23.08.03
Beiträge
107
Kekse
50
Ort
@home
ma ne frage:
wollt auch schon lange zeit mal was aufnehmen, aber mit mikro isses eher besch..eiden. hab nurn scheiß mikro...
habn zoom 505II(tja,wie lange noch...), das nützt mir bei der sache direkt innen pc net oder?
Hab auch schon an v-amp und so gedacht, aber da kann man ja die effekte net schnell nacheinander umschalten oder? hat ja kein fußschalter...
was gibts da noch für alternativen?was wär denn des billigste?
 

Ähnliche Themen

Neue Themen

Unser weiteres Online-Angebot:
Bassic.de · Deejayforum.de · Sequencer.de · Clavio.de · Recording.de

Musiker-Board Logo
Oben