Give it away

von Bady_BM, 05.03.05.

  1. Bady_BM

    Bady_BM Registrierter Benutzer

    Im Board seit:
    05.03.05
    Zuletzt hier:
    5.12.11
    Beiträge:
    5
    Ort:
    Oberösterreich
    Zustimmungen:
    0
    Kekse:
    10
    Erstellt: 05.03.05   #1
    Guten Morgen,

    ich versuche schon seit einiger Zeit Give it away von Red hot chili peppers zu spielen. Doch bereits das Intro bereitet mir einige Schwierigkeiten. Kann mir jemand bitte sagen wie ich meine Finger am besten platzieren sollte um das zu spielen:

    E|------------8^-------8--11-----11----11---11-----11-----11------|
    B|------------8^-------8^-----8^----8^----8^-----8^-----8^--------|
    G|-----------11^------11^~---11^~--11^~--11^~---11^~---11^~-------|
    D|-7--7-7-7-------------------------------------------------------|
    A|-0--0-0-0-------------------------------------------------------|
    E|----------------------------------------------------------------|

     
  2. apu

    apu Registrierter Benutzer

    Im Board seit:
    12.08.04
    Zuletzt hier:
    2.01.07
    Beiträge:
    36
    Ort:
    Trier
    Zustimmungen:
    0
    Kekse:
    10
    Erstellt: 05.03.05   #2
    also bei der platzierung der finger kann ich dir leider nicht helfen, aber ich kann dir sagen, dass das intro im offiziellen tab-book anders aussieht...
     
  3. Arvir

    Arvir Registrierter Benutzer

    Im Board seit:
    02.10.04
    Zuletzt hier:
    11.05.14
    Beiträge:
    1.161
    Zustimmungen:
    4
    Kekse:
    3.583
    Erstellt: 05.03.05   #3
    Was nichts heißen muss da es offizielle Tabbooks gibt in denen so dermaßener Schmarn drinnen steht.
     
  4. clemens

    clemens Registrierter Benutzer

    Im Board seit:
    01.02.04
    Zuletzt hier:
    7.10.08
    Beiträge:
    2.384
    Ort:
    Austria
    Zustimmungen:
    9
    Kekse:
    668
    Erstellt: 05.03.05   #4
    Versuch's mal so:

    |-----|-----------8---(8)-(8)----|
    |-----|-----------7b8-(7)-(7)----|
    |-----|--------------------------|
    |-----|-7-7-7-7------------------|
    |-----|-0-0-0-0-0----------------|
    |-----|--------------------------|


    |-(8)-11----------11----------11----------11----------11----------|
    |-(7)----7pb8r(7)----7pb8r(7)----7pb8r(7)----7pb8r(7)----7pb8r(7)-|
    |-----------------------------------------------------------------|
    |-----------------------------------------------------------------|
    |-----------------------------------------------------------------|
    |-----------------------------------------------------------------|
     
Die Seite wird geladen...

mapping