Habe Tabs aber nicht den Titel... Bitte Hilfe !!?

von niggel, 05.07.07.

Status des Themas:
Es sind keine weiteren Antworten möglich.
  1. niggel

    niggel Registrierter Benutzer

    Im Board seit:
    03.10.06
    Zuletzt hier:
    31.07.14
    Beiträge:
    29
    Zustimmungen:
    0
    Kekse:
    10
    Erstellt: 05.07.07   #1
    moin ,
    ich habe beim git-unterricht ein lied gelernt, das mir nicht mehr aus dem ohr geht. das problem ist nur das ich nicht mehr weiß, wie es heißt...

    es ist ein sehr bekanntes , sehr groovendes stück und wurde in den 90er mal von einem hip hop act gecovert. gespielt wird es so (vereinfacht):

    e-standart:

    e----------------- --------------------- -----------
    h-1/3-4\3------- ------4/6-7\6------- ----6---6--
    g-1/3-5\3--(4x)- ------4/6-8\6--(2x) ----5---5--
    a----------------- --------------------- ----4---4--
    d----------------- --------------------- ----5---5--
    E----------------- --------------------- ------------

    melodie:

    e--------------------------------------------------
    h-----------------9-11-11-----9-11-13----------
    g-10-10------10-------------------------8-10---
    d--------------------------------------------------

    dazu noch ein fetter basslauf....

    bloß wie heißt es nochmal ???

    vielen dank im vorraus :)
     
  2. LennyNero

    LennyNero HCA Gitarre: Racks & MIDI Ex-Moderator HCA

    Im Board seit:
    02.12.03
    Zuletzt hier:
    9.12.16
    Beiträge:
    17.525
    Ort:
    Wetzlar
    Zustimmungen:
    288
    Kekse:
    35.627
Die Seite wird geladen...

Status des Themas:
Es sind keine weiteren Antworten möglich.
mapping