Ill Niño - The Alibi of Tyrants

von DeathSnake, 09.02.08.

  1. DeathSnake

    DeathSnake Registrierter Benutzer

    Im Board seit:
    25.03.06
    Zuletzt hier:
    11.03.12
    Beiträge:
    66
    Ort:
    Holzminden
    Zustimmungen:
    1
    Kekse:
    56
    Erstellt: 09.02.08   #1
    N'Abend,

    bin nicht sonderlich gut im raushören und wollte deswegen fragen, ob mir jemand die Stelle von 2:31 bis 2:51 Tabben kann? Zeit stammt aus dem Vid: http://de.youtube.com/watch?v=mmlqmnuPDqg&feature=related
    Der Rest ist ja recht einfach. Aber an der Stelle hörts sich bei mir einfach irwie nicht richtig an :)
    Schonmal Danke.

    Greetz, Snake
     
  2. Metalbambi

    Metalbambi Registrierter Benutzer

    Im Board seit:
    20.12.07
    Zuletzt hier:
    5.04.10
    Beiträge:
    20
    Zustimmungen:
    0
    Kekse:
    10
  3. DeathSnake

    DeathSnake Threadersteller Registrierter Benutzer

    Im Board seit:
    25.03.06
    Zuletzt hier:
    11.03.12
    Beiträge:
    66
    Ort:
    Holzminden
    Zustimmungen:
    1
    Kekse:
    56
    Erstellt: 10.02.08   #3
    Das war das erste, was ich gemacht hab -.-

    Aber daraus werd ich auch nicht schlau. Hört sich für mich jedenfalls total anders an, als das, was bei ultimate-guitar.com steht.

    Code:
    D|-----------------------------------------|
    A|-----------------------------------------|
    F|-----------------------------------------|
    C|-10-12p10h12p10h12p10h12-------------0-3-|
    G|-------------------------5h6p5h6p5h6-0-3-|
    C|-------------------------------------0-3-|
    
    D|-------------------------------|
    A|-------------------------------|
    F|-------------------------------|
    C|-8-7h8p7h8p7h8-------------3-5-|
    G|---------------5h6p5h6p5h6-3-5-|
    C|---------------------------3-5-|
    Allein der Schluss mit den Barree Griffen kann doch schon nicht hinkommen. Im Video sind sie auch nicht zu sehen. Und der Rest hört sich auch eher nach geshredder an, als nach Hammer Ons und Pull Offs.
    Was bei ultimate steht, muss auch nicht gleich richtig sein.
     
Die Seite wird geladen...

mapping