Malsteen - Air on the G-String, brauche die Tabs

von ButT3rs, 25.12.05.

  1. ButT3rs

    ButT3rs Registrierter Benutzer

    Im Board seit:
    09.04.05
    Zuletzt hier:
    28.10.13
    Beiträge:
    331
    Zustimmungen:
    0
    Kekse:
    140
    Erstellt: 25.12.05   #1
    N'Abend

    Ich und meine Band haben uns Überlegt einen Akustik-Gig zu veranstalten bei dem nur ich unser anderer Gitarrist und der Sänger auf der Bühne sein werden. Wir haben schon eine große Anzahl von unseren Songs auf die Akustik übertragen, und nun haben wir uns überlegt, dass ich als "Sahnehäubchen" die Version von Air on the G-String von Malmsteen spielen werde. Unser Sänger begleitet mich dabei mit dem Keyboard.

    Weiss irgendwer von euch wo ich eventuell Tabs zu dem Stück bekommen kann ?
    Die Version von Bach ist auch sehr schön allerdings gefällt mir Malmsteens Interpretation des Stücks besser. (und ist nicht so umstädlich , da sie dann schon auf die Gitarre übertragen ist)

    Ich wär euch sehr dankbar wenn ihr mir weiterhelfen könntet :)

    MFG
     
  2. Bellini

    Bellini Registrierter Benutzer

    Im Board seit:
    09.10.04
    Zuletzt hier:
    27.12.09
    Beiträge:
    315
    Zustimmungen:
    1
    Kekse:
    83
    Erstellt: 25.12.05   #2
    Die Antwort auf deine Frage: Nein, ich weiß nicht wo man da Tabs herbekommen kann.


    :) Aber! :)

    Ich kann dir weiterhelfen, beschäftige mich schon lange mit Malmsteen und hab mir sogar meine Fender umbauen lassen (Malmsteen pick-ups, scalloped neck etc.). Ich hab sein Air on a G string mal rausgehört und kann es dir als Noten oder Tabs gern aufschreiben.
     
  3. ButT3rs

    ButT3rs Threadersteller Registrierter Benutzer

    Im Board seit:
    09.04.05
    Zuletzt hier:
    28.10.13
    Beiträge:
    331
    Zustimmungen:
    0
    Kekse:
    140
    Erstellt: 25.12.05   #3
    hi
    das wär echt klasse von dir ! Ich find nämlich im netz nirgens was , hab mich schon auf spanischen internetseiten rumgetrieben und nix gefunden.
    Gibt auch ne Bewertung wenn du dir die Mühe machst , sowas soll belohnt werden ;)

    Also tabs wären mir am liebsten wenn das geht :)

    MFG und danke schonmal
     
  4. Bellini

    Bellini Registrierter Benutzer

    Im Board seit:
    09.10.04
    Zuletzt hier:
    27.12.09
    Beiträge:
    315
    Zustimmungen:
    1
    Kekse:
    83
    Erstellt: 25.12.05   #4
    Hallo,

    Ich hab gerade einen Teil getabt aber immer wenn ich auf die Vorschau sehe, ist der ganze Tab im Code verrutsch, zB. die B Saite einfach woanders etc.
     
  5. ButT3rs

    ButT3rs Threadersteller Registrierter Benutzer

    Im Board seit:
    09.04.05
    Zuletzt hier:
    28.10.13
    Beiträge:
    331
    Zustimmungen:
    0
    Kekse:
    140
    Erstellt: 25.12.05   #5
    hmm ehm du kannst es ja auch als dokument anhängen oder? dann müsste es klappen :)
     
  6. Bellini

    Bellini Registrierter Benutzer

    Im Board seit:
    09.10.04
    Zuletzt hier:
    27.12.09
    Beiträge:
    315
    Zustimmungen:
    1
    Kekse:
    83
    Erstellt: 26.12.05   #6
    Naja irgendwie so, dass man es nicht erst runterladen muss, sondern es gleich sieht, geht das noch irgendwie?
     
  7. ButT3rs

    ButT3rs Threadersteller Registrierter Benutzer

    Im Board seit:
    09.04.05
    Zuletzt hier:
    28.10.13
    Beiträge:
    331
    Zustimmungen:
    0
    Kekse:
    140
    Erstellt: 26.12.05   #7
    hi
    ich glaube nicht :o aber vieleicht kann uns ja noch jemand helfen , der weiss wie man sowas ríchtig ins netz gestellt bekommt :D

    MFG
     
  8. Bellini

    Bellini Registrierter Benutzer

    Im Board seit:
    09.10.04
    Zuletzt hier:
    27.12.09
    Beiträge:
    315
    Zustimmungen:
    1
    Kekse:
    83
    Erstellt: 26.12.05   #8
    Also dann,

    Scheiß erstmal drauf. Ich werd es erstmal so reinstellen.
    Das ist jetzt der erste Teil, wärend ich den zweiten mach, kannst du schonmal zocken ;) und eventuelle Fragen stellen.

    Also hier ist es:



    Eb|----------------------------------------------------------[12]-------- Bb|----[12]-----------------------------------------[12]---------[12]---- Gb|----[12]------------------------------------[12]------------------[12]
    Db|----[12]--------------------------------------------------------------
    Ab|----10------10----9h10trill--------------------------------------------
    Eb|------------------------2p0--(picking hand)-------------10------------


    Eb|--------------12---8-------------------------------------------------- Bb|--------------------------10------8---7--8------7----7h8trill----------
    Gb|---------------------------------------------------------------9---7-- Db|----------------------------------------------------------------------
    Ab|-------------------------------------------------5--------------------
    Eb|------8-------------------9------------------------------------8------

    Eb|------10------------------------10----------------7------------------- Bb|-----------------------------------------------------------------10---
    Gb|----------9-----10-----9------------10----9-----------10---9--------- Db|----------------------------------------------------------------------
    Ab|----------------0-----------------------------------------------------
    Eb|------7---------------------------------------------------------------



    Eb|-------10---8------------|
    Bb|9-----------------10-----|
    Gb|-------------------------|
    Db|------------------7------|
    Ab|-------------------------|
    Eb|-------------------------|

    So,

    hier kommt Part 2:

    Eb|-------------------------------------------5--------------------8---7-- Bb|-----------------------------------------------5---------8--7---------- Gb|---------------------------------------------------7-------------------
    Db|---6--7--9--10----------5-h-7-p-5---4------------------0-------------
    Ab|-----------------------------------------------------------------------
    Eb|-----------------------------------------------------------------------

    Eb|-----------------[12]-----------------7-----9-----10-------------------
    Bb|---8------[12]-------------------------------------------8----10---8-- Gb|-----------------------[12]--------------------------------------------
    Db|-----------------------------------------------------------------------
    Ab|---10---------------------------9------------------------7------------
    Eb|-----------------------------------------------------------------------

    Eb|----------------------------7----8----7h8trill-----------------------------------| Bb|---7----8----------8--10-----------------------10----10----8p7h8p7h8p7-------|
    Gb|----------------------------------------------------------------------------9--9|
    Db|--------------------------------------------------------------------------------|
    Ab|--------------------------------------------------------------------------------|
    Eb|--------------------------------------------------------------------------------|

    Ab hier improvisiert er dann nurnoch.
    Das Original ist natürlich noch viel länger und du könntest es ruhig ankoppeln, aber wenn du vorhast wie er zu improvisieren, empfehl ich dir einfach in der Skala in der du dich im schlusstakt befindest (E harmonisch moll) einfach nach unten zu spielen und auf dem tiefen E (leersaite) zu landen.

    Dann eignet sich ein "dimished run" (verminderte skala) sehr gut.

    Da du ja auf dem E landest (oder Eb in diesem Fall) Kannst du es gut SO spielen:
    Eb|-----------------------------------------------------------------------| Bb|-----------------------------------------------------------------------| Gb|------------------------------7---10---7--10----7--11-----------------|
    Db|---------------------6----9--------------------------------------------|
    Ab|-------------5---8-----------------------------------------------------|
    Eb|--0---4--7-------------------------------------------------------------|

    Ist auch ziemlich Malmsteen typisch, als ich mit unserem Orchester ein paar Stücke aus der Concerto Suite von Malmsteen vorgespielt haben, hat man schon ein bisschen gemerkt, dass Malmsteen die pattern oft einsetzt wenn ihm gerade nichts einfällt ;).

    Trotzdem, er ist und bleibt mein lieblingskünstler...
     
  9. ButT3rs

    ButT3rs Threadersteller Registrierter Benutzer

    Im Board seit:
    09.04.05
    Zuletzt hier:
    28.10.13
    Beiträge:
    331
    Zustimmungen:
    0
    Kekse:
    140
    Erstellt: 26.12.05   #9
    Klasse ! dankeschön !:)


    EDIT: So weit ist alles klar , passt auch zum original. :great:
     
  10. LoneLobo

    LoneLobo Mod Emeritus Ex-Moderator HCA

    Im Board seit:
    13.04.04
    Zuletzt hier:
    25.11.16
    Beiträge:
    8.457
    Ort:
    Österreich
    Zustimmungen:
    138
    Kekse:
    22.219
    Erstellt: 26.12.05   #10
    Hey Nicky!

    Setz deinen Tab einfach in die Code-Tags:

    Code:
    *tab*[./code] (nur eben ohne den punkt)
    
    Damit wird das ganze passend angezeigt:
    
    [code]Eb|----------------------------------------------------------[12]-------- 
    Bb|----[12]-----------------------------------------[12]---------[12]---- 
    Gb|----[12]------------------------------------[12]------------------[12]
    Db|----[12]--------------------------------------------------------------
    Ab|----10------10----9h10trill--------------------------------------------
    Eb|------------------------2p0--(picking hand)-------------10------------
    
    Eb|--------------12---8-------------------------------------------------- 
    Bb|--------------------------10------8---7--8------7----7h8trill----------
    Gb|---------------------------------------------------------------9---7-- 
    Db|----------------------------------------------------------------------
    Ab|-------------------------------------------------5--------------------
    Eb|------8-------------------9------------------------------------8------
    
    Eb|------10------------------------10----------------7------------------- 
    Bb|-----------------------------------------------------------------10---
    Gb|----------9-----10-----9------------10----9-----------10---9--------- 
    Db|----------------------------------------------------------------------
    Ab|----------------0-----------------------------------------------------
    Eb|------7--------------------------------------------------------------- 
    
    Eb|------10------------------------10----------------7------------------ 
    Bb|-----------------------------------------------------------------10---
    Gb|----------9-----10-----9------------10----9-----------10---9--------- 
    Db|----------------------------------------------------------------------
    Ab|----------------0-----------------------------------------------------
    Eb|------7--------------------------------------------------------------- 
    
    Eb|-------10---8------------| 
    Bb|9-----------------10-----|
    Gb|-------------------------| 
    Db|------------------7------|
    Ab|-------------------------|
    Eb|-------------------------|
     
  11. Bellini

    Bellini Registrierter Benutzer

    Im Board seit:
    09.10.04
    Zuletzt hier:
    27.12.09
    Beiträge:
    315
    Zustimmungen:
    1
    Kekse:
    83
    Erstellt: 26.12.05   #11
    So, hab das Alte editiert.

    LoneLobo, problem ist, dass mir dann immer die Saiten verrutschen und dann in der Vorschau oder im Post alles schief ist.

    EDIT: Im Alten war eine Zeile zuviel, ich habs editiert.
     
  12. ButT3rs

    ButT3rs Threadersteller Registrierter Benutzer

    Im Board seit:
    09.04.05
    Zuletzt hier:
    28.10.13
    Beiträge:
    331
    Zustimmungen:
    0
    Kekse:
    140
    Erstellt: 26.12.05   #12
    Dankehschön , dann steht dem ganzen ja jetzt nichts mehr im wege ! :)

    MFG
     
  13. Bellini

    Bellini Registrierter Benutzer

    Im Board seit:
    09.10.04
    Zuletzt hier:
    27.12.09
    Beiträge:
    315
    Zustimmungen:
    1
    Kekse:
    83
    Erstellt: 26.12.05   #13
    Kein Problem, bei Fragen zu Malmsteen einfach immer fragen, oder pm :)
     
  14. LoneLobo

    LoneLobo Mod Emeritus Ex-Moderator HCA

    Im Board seit:
    13.04.04
    Zuletzt hier:
    25.11.16
    Beiträge:
    8.457
    Ort:
    Österreich
    Zustimmungen:
    138
    Kekse:
    22.219
    Erstellt: 26.12.05   #14

    Stimmt, das is schon blöd :)

    Abhilfe: Tab vorher im Editor aufschreiben, da passen die Abstände auch. Dann alles markieren und hier in code-Tags reinkopieren.
    Im Post eintragen-Fenster isses zwar verschoben, aber das hebt sich wieder auf.
     
Die Seite wird geladen...

mapping