Master of Puppets, aber wie `??

von WildChild667, 09.02.05.

  1. WildChild667

    WildChild667 Registrierter Benutzer

    Im Board seit:
    10.12.04
    Zuletzt hier:
    19.11.14
    Beiträge:
    697
    Ort:
    Ludwigsburg
    Zustimmungen:
    10
    Kekse:
    242
    Erstellt: 09.02.05   #1
    hallo leute

    bisher bekomm ich MoP gut hin aber den teil bekomm ich einfach net so schnell hin das es sich einigermaßen nach mop anhört, gibts da irgend nen trick, mach ich was falsch ??

    D---------------------------------- ---------------2-9
    A------2-----3-----4-----3-----2-2- play 3 times then -5/4--5/4--5/4-2-7
    E--0-1---0-1---0-1---0-1---0-1----- -3/2--3/2--3/2-0--

    wenns sein muss nehm ich meine "version" mal auf aber ihr werdet es net mal erkennen

    Bin für jede Hilfe dankbar !! :great:
     
  2. Domo

    Domo Helpful & Friendly User HFU

    Im Board seit:
    31.08.03
    Zuletzt hier:
    20.09.16
    Beiträge:
    10.963
    Zustimmungen:
    77
    Kekse:
    13.607
    Erstellt: 09.02.05   #2
    der trick heißt üben, üben und nochmal üben!! ;)

    übrigens, ich spiele es anders als du:
    Code:
    E||--------------------------|--------------------------|
    B||--------------------------|--------------------------|
    G||--------------------------|--------------------------|
    D||--------------------------|--------------------------|
    A||--------2--------3--------|--4--------3--------2--2--|
    E||--0--1-----0--1-----0--1--|-----0--1-----0--1--------|
    
    
                                                           
    --------------------------|--------------------------||
    --------------------------|--------------------------||
    --------------------------|--------------------------||
    --------------------------|--------------------------||
    --------2--------3--------|--5/-4-----5/-4-----5/-4--||
    --0--1-----0--1-----1--0--|--3/-2--0--3/-2--0--3/-2--||
    
    probier mal meine version aus, klingt wahrscheinlich eher nach dem original :D
     
  3. WildChild667

    WildChild667 Threadersteller Registrierter Benutzer

    Im Board seit:
    10.12.04
    Zuletzt hier:
    19.11.14
    Beiträge:
    697
    Ort:
    Ludwigsburg
    Zustimmungen:
    10
    Kekse:
    242
    Erstellt: 09.02.05   #3
    ok, danke mein schnuckelchen

    ich wollt noch schreiben "gibts da irgendwas zu beachten" anstatt gibts irgend nen trick dann wärs wohl deutlicher geworden..

    ich weiß, ohne üben geht gar nix.. ich probier mal morgen deine version !! thx
    aber eltern schlafen weil krank deshalb e.gitarre + ich = papa mich kaputt machen ;:D
     
  4. BreadFan

    BreadFan Registrierter Benutzer

    Im Board seit:
    01.10.04
    Zuletzt hier:
    16.06.14
    Beiträge:
    1.036
    Ort:
    Hildesheim
    Zustimmungen:
    0
    Kekse:
    281
    Erstellt: 09.02.05   #4
    üb dieses teil erst langsam und wenn du es langsam flüssig drauf hast kannst du das eigentlich auch schneller...also imma wieder üben.. ;)
     
  5. CastorTroy

    CastorTroy Registrierter Benutzer

    Im Board seit:
    21.10.03
    Zuletzt hier:
    8.08.07
    Beiträge:
    376
    Ort:
    Nähe Mainz
    Zustimmungen:
    0
    Kekse:
    17
    Erstellt: 09.02.05   #5
    by the way:

    bevor der part kommt, von dem ihr grad geredet habt kommt doch:

    |----------------------------|
    |----------------------------|
    |----------------------------|
    |-2--------------------------|
    |-2------12--11--10~---------|
    |-0------10--9---8~----------|

    |-----------------------------------------------------------------|
    |-----------------------------------------------------------------|
    |-----------------------------------------------------------------|
    |-----------------------------------------------------------------|
    |--------------------12--11--10-----------------------------------|
    |--0-0-12-0-0-11-0-0-10--9---8--0-0-7-0-0-6-0-0-5-0-4-0-3-0-2-0---|
    4x

    oder is das falsch?
     
  6. WildChild667

    WildChild667 Threadersteller Registrierter Benutzer

    Im Board seit:
    10.12.04
    Zuletzt hier:
    19.11.14
    Beiträge:
    697
    Ort:
    Ludwigsburg
    Zustimmungen:
    10
    Kekse:
    242
    Erstellt: 09.02.05   #6
    also ich habs jetz einigermaßen drauf.. hört sich aber einfach nich an wie im original.. soll ichs mal als clean aufnehmen ?? vielleicht hört ihr nen fehler
     
  7. Domo

    Domo Helpful & Friendly User HFU

    Im Board seit:
    31.08.03
    Zuletzt hier:
    20.09.16
    Beiträge:
    10.963
    Zustimmungen:
    77
    Kekse:
    13.607
    Erstellt: 09.02.05   #7
    @castor
    so ists besser:

    Code:
    E||-------------------|---------------------|------------------|
    B||-------------------|---------------------|------------------|
    G||--9----------------|--7----6----5--------|------------------|
    D||--9----------------|--7----6----5--------|------------------|
    A||--7----------------|--5----4----3--------|------------------|
    E||--0----------------|---------------------|------------------|
    
    
                                                                                
    --------------------------|---------------------|--------------------------|
    --------------------------|---------------------|--------------------------|
    --------------------------|--7----6----5--------|--------------------------|
    --------------------------|--7----6----5--------|--------------------------|
    --------7--------6--------|--5----4----3--------|--------------------------|
    --0--0-----0--0-----0--0--|---------------------|--0--0--7--0--0--6--0--0--|
    
    
                                                                                
    --------------------------|--------------------------|---------------------|
    --------------------------|--------------------------|---------------------|
    --------------------------|--------------------------|--7----6----5--------|
    --------------------------|--------------------------|--7----6----5--------|
    --------------------------|--------7--------6--------|--5----4----3--------|
    --5--0--4--0--3--0--2--0--|--0--0-----0--0-----0--0--|---------------------|
    
    
                                                           
    --------------------------|--------------------------||
    --------------------------|--------------------------||
    --------------------------|--------------------------||
    --------------------------|--------------------------||
    --------------------------|--------------------------||
    --0--0--7--0--0--6--0--0--|--5--0--4--0--3--0--2--0--||
    deine version ist nicht nur umständlicher zu greifen, es klingt sogar komisch :D
     
  8. CastorTroy

    CastorTroy Registrierter Benutzer

    Im Board seit:
    21.10.03
    Zuletzt hier:
    8.08.07
    Beiträge:
    376
    Ort:
    Nähe Mainz
    Zustimmungen:
    0
    Kekse:
    17
    Erstellt: 09.02.05   #8
    ok danke! :great:
     
  9. WildChild667

    WildChild667 Threadersteller Registrierter Benutzer

    Im Board seit:
    10.12.04
    Zuletzt hier:
    19.11.14
    Beiträge:
    697
    Ort:
    Ludwigsburg
    Zustimmungen:
    10
    Kekse:
    242
    Erstellt: 09.02.05   #9
    habs jetz mal clean aufgenommen

    mach ich !!! HIER !!! irgendwas falsch ??

    ps: achtung sehr leise !

    edit: achja wie immer danke für jede hilfe !! :great:
     
  10. snakeeater

    snakeeater Registrierter Benutzer

    Im Board seit:
    01.11.03
    Zuletzt hier:
    21.08.13
    Beiträge:
    483
    Ort:
    Schweiz
    Zustimmungen:
    0
    Kekse:
    312
    Erstellt: 09.02.05   #10
    Dieser --0--1 part würde ich gepalmutet spielen und dann halt noch etwas schneller
     
  11. BreadFan

    BreadFan Registrierter Benutzer

    Im Board seit:
    01.10.04
    Zuletzt hier:
    16.06.14
    Beiträge:
    1.036
    Ort:
    Hildesheim
    Zustimmungen:
    0
    Kekse:
    281
    Erstellt: 09.02.05   #11

    nein falsch is das nich....so spielst sogar Metallica...beides is richtig.also das untere wird so von Metallica gespielt das obere glaub ich wird nich so gespielt...
     
  12. WildChild667

    WildChild667 Threadersteller Registrierter Benutzer

    Im Board seit:
    10.12.04
    Zuletzt hier:
    19.11.14
    Beiträge:
    697
    Ort:
    Ludwigsburg
    Zustimmungen:
    10
    Kekse:
    242
    Erstellt: 09.02.05   #12
    ok danke !

    aber sonst einigermaßen ok ?!

    weil ich hör da beim besten willen kein MoP raus :p
     
  13. Razzzor

    Razzzor Registrierter Benutzer

    Im Board seit:
    31.01.05
    Zuletzt hier:
    4.07.07
    Beiträge:
    46
    Zustimmungen:
    0
    Kekse:
    14
    Erstellt: 09.02.05   #13
    soooodele...

    ne falschmachen tust du nix...

    nur dieses riff ist so ziemlich das GODFATHER RIFF of metal wenn ich das mal so sagen darf :D

    das ganze wird nämlich mit 215 bpm (beats per minute) gespielt... stell dir mal n metronom auf die geschwindigkeit ;) (nehm ne software oda so, gibt nich viele billige metronome die so weit kommen ^^ )

    jedenfalls heissts hier wirklich üben, üben, üben! aber so wie du's machst isses richtig!

    allerdings kann ich dir echt ans herz legen mit nem metronom oder ner drummachine zu üben und das tempo immer weiter zu steigern... ich komm bis heut nich auf dieses unglaubliche tempo, und das können auch wirklich nich viele so spiele wie es unser lieber james macht ;) die meissten nehmen dann halt ersatzversionen wie

    -0-0-7-0-0-8-0-0-9-0-0-8-0-0-7 (auf der e-saite)

    was sich schon leichter mal danach anhört, aber wenn du's richtig lernen willst mach so weiter wie du's spielst, und komm auf die 215 bpm ;)

    (tipp: lad dir mal guitarpro runter, dazu die mop tabfile und lass es mal langsamer abspielen, dann hört sichs genau wie deins an ;) )
     
  14. WildChild667

    WildChild667 Threadersteller Registrierter Benutzer

    Im Board seit:
    10.12.04
    Zuletzt hier:
    19.11.14
    Beiträge:
    697
    Ort:
    Ludwigsburg
    Zustimmungen:
    10
    Kekse:
    242
    Erstellt: 09.02.05   #14
    na danke :D
    das proggi hab ich schon.
    naja ich spiel erst seit dezember gitarre.. und ich kann "schon"
    nothing else
    enter sandman
    seek & Destroy
    One
    grad binsch noch an fade to black

    ich weiß is nich toll aber mich motivierts ein bissel weil für 3 monate is es ganz ordentlich denk ich...
    ausserdem machts bock wie sau :great:
     
  15. BreadFan

    BreadFan Registrierter Benutzer

    Im Board seit:
    01.10.04
    Zuletzt hier:
    16.06.14
    Beiträge:
    1.036
    Ort:
    Hildesheim
    Zustimmungen:
    0
    Kekse:
    281
    Erstellt: 09.02.05   #15
    kannst du diese Songs auch alle ganz und flüssig?
     
  16. WildChild667

    WildChild667 Threadersteller Registrierter Benutzer

    Im Board seit:
    10.12.04
    Zuletzt hier:
    19.11.14
    Beiträge:
    697
    Ort:
    Ludwigsburg
    Zustimmungen:
    10
    Kekse:
    242
    Erstellt: 09.02.05   #16

    hmm *hust*

    enter sandman = ganz (is ja nun wirklich net die härte)
    one = die erste gitarre (lol ;) )
    Nothing else auch die erste gitarre
    was war noch ??

    seek and destroy auch

    edit: also flüssig alles.. aber was ich kann is keine kunst !

    naja wie gesagt.. ich denk das wichtigste is immer dran bleiben

    achja razzor musste das sein ?? :D
    jetz weiss ich net ob ich die faulheitsversion üben soll.. :screwy:
    bis ich das andere mal in orig. geschwindigkeit kann hält mein rücken keine gitarre mehr :o
     
  17. Nullchecker

    Nullchecker Registrierter Benutzer

    Im Board seit:
    21.08.04
    Zuletzt hier:
    5.08.16
    Beiträge:
    1.700
    Ort:
    Mannheim
    Zustimmungen:
    19
    Kekse:
    3.392
    Erstellt: 09.02.05   #17
    (hat sich erledigt; warum kann man kein posts löschen?)
     
  18. WildChild667

    WildChild667 Threadersteller Registrierter Benutzer

    Im Board seit:
    10.12.04
    Zuletzt hier:
    19.11.14
    Beiträge:
    697
    Ort:
    Ludwigsburg
    Zustimmungen:
    10
    Kekse:
    242
    Erstellt: 09.02.05   #18
    nimm doch net alles so wörtlich ;)

    aber btw:

    du hast recht :D

    edit: lol stimmt kann man wirklich nemme :rolleyes:
     
  19. Decadox

    Decadox Registrierter Benutzer

    Im Board seit:
    16.01.05
    Zuletzt hier:
    10.02.14
    Beiträge:
    579
    Zustimmungen:
    5
    Kekse:
    2.292
    Erstellt: 09.02.05   #19
    Bei diesem Riff ist es sehr wichtig alle (!!!) Noten auf der E-Saite zu "Palm-Muten", aber die Töne auf der A-Saite offen zu spielen!

    Dann hast du, vom technischen her, den ersten Teil des Riffs schonmal gepackt. James spielt das Riff ausschließlich mit Downstrokes auf 220 BPM. Das ist für Anfänger fast unmöglich, also beginne den Teil langsam zu lernen und dann das Tempo zu steigern.

    Die Slides werden schnell gespielt und zwischen jedem Slide kommt ein kurzer gemuteter Downstroke auf der E-Saite. Ich habe dir hier mal einen kleinen Ausschnitt des Riffs langsam eingespielt. Ich hoffe du kriegst es hin...

    http://home.arcor.de/rectoz/MOP.mp3 (Enthält die sinnigen Teile des Riffs. Erst ganz langsam, dann schneller)
     
  20. WildChild667

    WildChild667 Threadersteller Registrierter Benutzer

    Im Board seit:
    10.12.04
    Zuletzt hier:
    19.11.14
    Beiträge:
    697
    Ort:
    Ludwigsburg
    Zustimmungen:
    10
    Kekse:
    242
    Erstellt: 09.02.05   #20
    rectoz du bist ein schatz.. hast du ne freundin ??? :D

    ne, spaß mal bei seite..

    werds auch erstmal so machen dass ich es langsam einigermaßen hinkrieg.. vielleicht sogar so gut wie deine aufnahme (also das langsame)
    und dann immer schneller und immer schneller...

    aber erstmal danke für die mühe !! :great:
     
Die Seite wird geladen...

mapping