Metallica - The Unforgiven --> Heavy Part Tabs?

  • Ersteller chrisne84
  • Erstellt am
C
chrisne84
Registrierter Benutzer
Zuletzt hier
26.09.07
Registriert
06.10.03
Beiträge
125
Kekse
23
Ort
Berlin-Schmargendorf
Kann mir jemand gute Tabs zu dem heavy part bei "The Unforgiven-Metallica" geben?!
Ich finde irgendwie nix Brauchbares, ich ing davon aus, dass es powerchords sind, aber langsam zweifel ich dran.

KAnn mir einer Helfen
 
Eigenschaft
 
F
fbeyer
Registrierter Benutzer
Zuletzt hier
27.12.05
Registriert
06.12.03
Beiträge
188
Kekse
0
Ort
München
Ich empfehle wirklich Power Tab und das PowerTabs Archive
http://www.power-tab.net/
http://www.powertabs.net/

Hier der Part als ASCII-Export:

[code:1]||----------------------------------|
||o---------------------------------|
||------------------------------12--|
||--12--10--9--9h10--------------0--|
||o--0---0--0--0-(0)--10------------|
||---------------------0----0-0-----|

|--------------------------------|---------------------------------|
|--------------------------------|---------------------------------|
|-12--11--11---------------------|------------------------------12-|
|--0---0---0--10--10---------12--|-12--10--9--9h10---------------0-|
|--------------0---0-----0-0--0--|--0---0--0--0-(0)--10------------|
|--------------------------------|--------------------0-----0-0----|

|------------------------|--------------------------|------------------------|
|------------------------|--------------------------|------------------------|
|-12-11-11---------------|-----------------------12-|-12-11-11---------------|
|--0--0--0-10-10------12-|-12-10-9-9h10-----------0-|--0--0--0-10-10------12-|
|-----------0--0--0-0--0-|--0--0-0-0-(0)-10---------|-----------0--0--0-0--0-|
|------------------------|----------------0--0-0----|------------------------|

|---------------------------------|-----------------|
|---------------------------------|-----------------|
|-----------------------------12--|-12--11--11------|
|-12--10--9-9h10---------------0--|--0---0---0--10--|
|--0---0--0-0-(0)--10-------------|--------------0--|
|-------------------0-----0-0-----|-----------------|

|-----------------------------------|
|-----------------------------------|
|-----------------------------------|
|-10p0-----9p0-----7p0-----5p0------|
|------0-0-----0-0-----0-0-----0-0--|
|-----------------------------------|

|----------------------|----------------------------------|
|----------------------|----------------------------------|
|----------------------|----------------------------------|
|-5---(5)--------------|-10p0-----9p0-----7p0-----5p0-----|
|-3---(3)-5-3-0-5------|------0-0-----0-0-----0-0-----0-0-|
|---------------3------|----------------------------------|

|---------------------|------||
|---------------------|------||
|---------------------|------||
|-5---(5)-------------|------||
|-3---(3)-5-3-0-5-----|-2----||
|---------------3-----|-0----||[/code:1]

Power Tab zeigt Dir das schöner an und spielt es Dir sogar vor!
 

Ähnliche Themen


Neue Themen

Unser weiteres Online-Angebot:
Bassic.de · Deejayforum.de · Sequencer.de · Clavio.de · Guitarworld.de · Recording.de

Musiker-Board Logo
Oben