nette licks für tonleitern

  • Ersteller edeltoaster
  • Erstellt am
edeltoaster
edeltoaster
Registrierter Benutzer
Zuletzt hier
03.02.21
Registriert
06.06.04
Beiträge
6.033
Kekse
2.477
habe extra noch gesucht aber nix nettes gefunden:
hiermit eröffne ich den ersten thread um licks für jegliche tonart zu posten!
(ich persönlich bin besonders an harmonisch moll und dur-licks intressiert :D )
 
Eigenschaft
 
H
Haloman
Registrierter Benutzer
Zuletzt hier
05.04.19
Registriert
02.04.05
Beiträge
193
Kekse
183
Ich mach das an C-Dur und A-Moll Tonleiter vor:

E|-5-3--------3------------8-5--------5---
B|------6-3-5---6-3------------8-5-6----8-5-

Du musst dich etwas in das Muster reindenken.. ist nicht einfach anfangs:)
 
edeltoaster
edeltoaster
Registrierter Benutzer
Zuletzt hier
03.02.21
Registriert
06.06.04
Beiträge
6.033
Kekse
2.477
ne absolut ok,is klar was du meinst!ich spiel meistens immer die selben licks,und wollte mal sehen was ihr so an licks spielt ;)
 
E
Edelweiss
Registrierter Benutzer
Zuletzt hier
13.11.19
Registriert
26.03.05
Beiträge
107
Kekse
0
hi,
kann mir vielleicht mal jemand erklären wie solche licks eigentlich zu stande kommen? also was hat das lick mit der c-dur bzw. a-moll tonleiter zu tun?
thx
 
H
Hans_3
High Competence Award
HCA
Zuletzt hier
13.10.21
Registriert
09.11.03
Beiträge
16.571
Kekse
57.693
Auf Grundton E - Harmonisch Moll in A = Harmonisch Dominant/HM5

---------12-13P12---------------------------------13--16P13-----------------------
15B17---------------15 13P12---------------15----------------15-----------------------
-----------------------------------14 13H16------------------------ 16---13---
----------------------------------------------------------------------------------
 
D
derspieler
Registrierter Benutzer
Zuletzt hier
04.09.09
Registriert
08.03.05
Beiträge
497
Kekse
96
Edelweiss schrieb:
hi,
kann mir vielleicht mal jemand erklären wie solche licks eigentlich zu stande kommen? also was hat das lick mit der c-dur bzw. a-moll tonleiter zu tun?
thx


...ähm, die töne sind (überwiegend) in der entsprechenden tonleiter zu finden....
 
edeltoaster
edeltoaster
Registrierter Benutzer
Zuletzt hier
03.02.21
Registriert
06.06.04
Beiträge
6.033
Kekse
2.477
irgendwie komm ich mir jetz blöd vor,wo der thread im anfänger-forum ist ;) :D

postet postet
 
AgentOrange
AgentOrange
Mod Emeritus
Ex-Moderator
Zuletzt hier
27.06.17
Registriert
16.04.04
Beiträge
9.972
Kekse
7.838
Ort
Heidelberg
hmm, so n lick des ich mal "erfunden" hab, spiel ich jeden tag zum aufwärmen ^^

Code:
-----------------------------------------------10------10-12------
-----------10-------10-12----10-12-13-10-12-13----12-13------------
-10-12-13----12-13--------13------------------------------------
------------------------------------------------------------------------
------------------------------------------------------------------------
------------------------------------------------------------------------

----10-12-13-15-13-12-10-----10--------------------------------------
-13------------------------13----13-12-10----10-----------------------
-------------------------------------------12----12-9-5-7--------------
------------------------------------------------------------------------
------------------------------------------------------------------------
------------------------------------------------------------------------


Muss man für sich selbst rausfinden wies am besten klingt.
 
thommy
thommy
Registrierter Benutzer
Zuletzt hier
24.11.11
Registriert
25.03.04
Beiträge
4.546
Kekse
1.490
Ort
its better to burn out than to fade away ?? ...
Standard Lick in e :rolleyes:

-----------------12--------12---------------
------------12----------12-------15^17~--
----14^16------14^16----------------------
---------------------------------------------
---------------------------------------------
---------------------------------------------

ich bin soooo unkreativ :(
 
Blinded by Me
Blinded by Me
Registrierter Benutzer
Zuletzt hier
05.10.21
Registriert
02.03.05
Beiträge
539
Kekse
69
Bei deinem einfachen Lick kann man auch einfach die 14 auf der g saite auf ne 16 hochbenden, klingt auch ganz gut. ;-)
 
Tonic
Tonic
Registrierter Benutzer
Zuletzt hier
12.01.07
Registriert
19.03.05
Beiträge
766
Kekse
199
Ort
Leverkusen
thommy schrieb:
Standard Lick in e :rolleyes:

-----------------12--------12---------------
------------12----------12-------15^17~--
----14^16------14^16----------------------
---------------------------------------------
---------------------------------------------
---------------------------------------------

ich bin soooo unkreativ :(


sieht aus wie ein Auszug aus dem NeM Solo :) :great:

naja so ähnlich
 
thommy
thommy
Registrierter Benutzer
Zuletzt hier
24.11.11
Registriert
25.03.04
Beiträge
4.546
Kekse
1.490
Ort
its better to burn out than to fade away ?? ...
Das NeM solo find ich klasse.

Ist einfach, und hat ein paar sehr geile Licks einfach hintereinandergereiht die auch noch einfach zu spielen sind.
 

Ähnliche Themen


Neue Themen

Unser weiteres Online-Angebot:
Bassic.de · Deejayforum.de · Sequencer.de · Clavio.de · Guitarworld.de · Recording.de

Musiker-Board Logo
Oben