NIRVANA - so eine Sch#|ß+........!!!!!!!!!!!!!

von ATK, 24.12.05.

  1. ATK

    ATK Registrierter Benutzer

    Im Board seit:
    02.10.05
    Zuletzt hier:
    4.06.09
    Beiträge:
    261
    Ort:
    N ü r n b e r g
    Zustimmungen:
    0
    Kekse:
    42
    Erstellt: 24.12.05   #1
    dieses beklopte lied bringt mich noch in den wahnsinn!!!!!:twisted:
    welches???????
    das einfachste lied von dennen (wird mir zumindenst immer gesagt)
    ----> smell like teen spirit.

    ich seh bei dieser sch.... nicht durch.

    kann mir einer mal das erklären, aber richtig mit deteils........wie soll ich des spielen???.....ich checks einfach nicht.
     
  2. deXta

    deXta Registrierter Benutzer

    Im Board seit:
    24.02.05
    Zuletzt hier:
    10.12.16
    Beiträge:
    1.040
    Ort:
    Bochum
    Zustimmungen:
    128
    Kekse:
    1.613
    Erstellt: 24.12.05   #2
    lass es lieber, es ist es nicht wert :)
     
  3. Josh TE

    Josh TE Registrierter Benutzer

    Im Board seit:
    13.03.04
    Zuletzt hier:
    22.04.09
    Beiträge:
    751
    Ort:
    Berlin
    Zustimmungen:
    3
    Kekse:
    294
    Erstellt: 24.12.05   #3
  4. gainer

    gainer Registrierter Benutzer

    Im Board seit:
    01.11.05
    Zuletzt hier:
    27.10.16
    Beiträge:
    570
    Ort:
    Köln
    Zustimmungen:
    0
    Kekse:
    10
    Erstellt: 24.12.05   #4
  5. thommy

    thommy Registrierter Benutzer

    Im Board seit:
    25.03.04
    Zuletzt hier:
    24.11.11
    Beiträge:
    4.586
    Ort:
    its better to burn out than to fade away ?? ...
    Zustimmungen:
    10
    Kekse:
    1.456
    Erstellt: 24.12.05   #5
    Öhmn...was checkst du denn nicht ?

    Der Song besteht doch eingentlich nur aus dem Anfangsriff, den Strophen (wo du nur 2 Töne spielen musst) , dem "Refrain" und dem Solo...
     
  6. thommy

    thommy Registrierter Benutzer

    Im Board seit:
    25.03.04
    Zuletzt hier:
    24.11.11
    Beiträge:
    4.586
    Ort:
    its better to burn out than to fade away ?? ...
    Zustimmungen:
    10
    Kekse:
    1.456
    Erstellt: 24.12.05   #6
    In dem Tab ist ein Fehler. Das G fehlt

    Richtig

    e------------------------------------------------------------
    h------------------------------------------------------------
    g------------------------3--3-------------------------6--6---
    D--3---3--3--------------3--3---5--6-6--6-------------6--6---
    A--3---3--3--x--x--x--x--1--1---5--6-6--6--x--x--x--x-4--4---
    E--1---1--1--x--x--x--x---------3--4-4--4--x--x--x--x--------

    Powerchords spielen, die x schöne Deadnotes, einfach reinhackeln, und auf den Rhytmus achten...

    Die strophen

    e-----------1-----------------------------------]
    h--1--------------------------------------------]
    g-----------------------------------------------]
    D-----------------------------------------------]
    A-----------------------------------------------]
    E-----------------------------------------------]



    e-------1---------1---------1-------1--------1--]
    h--1---------1---------1--------1-------1-------]
    g-----------------------------------------------]
    D-----------------------------------------------]
    A-----------------------------------------------]
    E-----------------------------------------------]


    muss ich da was dazu sagen? hörs dir an und spiel mit ...


    Der Refrain ist wieder das gleiche wie der Anfangsteil...

    Dann noch der kleine Break.. :

    e-----------------------------------------------]
    h-----------------------------------------------]
    g----------------3b-----------------------------]
    D--3-----3--4---------3-----3--8--6-------------]
    A--3--x--3--4---------3--x--3--8--6-------------]
    E--1--x--1--2---------1--x--1--6--4-------------]



    Hier musst du nur auf die 3 achten, die ist ein "Smare" (wegschmieren des Tons)

    und das Solo...

    e--------------------------------------------------------------
    h--------------------------------------------------------------
    g-------8----10-------8--8b--6--5---6-5------------------------
    D--10-------------6-----------------------8--6--8--8b--6--5----
    A--------------------------------------------------------------
    E--------------------------------------------------------------



    e-----------------------------------------------]
    h-----------------------------------------------]
    g-----------------------------------------------]
    D---6---5---6---5---6---5---6>5--5>3------------]
    A-----------------------------------------------]
    E-----------------------------------------------]
     
  7. booooobby05

    booooobby05 Registrierter Benutzer

    Im Board seit:
    23.12.05
    Zuletzt hier:
    10.12.09
    Beiträge:
    194
    Ort:
    krefeld
    Zustimmungen:
    0
    Kekse:
    34
    Erstellt: 24.12.05   #7
    Hey ATK

    Hier sind auch noch ein paar videos dazu..(und natülich die tabs)...es ist echt das simpelste der welt...:D

    http://www.freelicks.net/Nirvana_Smells_like.htm

    MFG und Frohe Weihnachten booooobby05

    Hmm..der typ da spielt irgendwie n komischen rhytmus..nja..am besten du spielst das so wie thommy es dir aufgeschrieben hast...ich mach es auch so:great: .....aba die figur bleibt die gleiche...:D
     
  8. LennyNero

    LennyNero HCA Gitarre: Racks & MIDI Ex-Moderator HCA

    Im Board seit:
    02.12.03
    Zuletzt hier:
    9.12.16
    Beiträge:
    17.525
    Ort:
    Wetzlar
    Zustimmungen:
    288
    Kekse:
    35.627
    Erstellt: 25.12.05   #8
    Wie kann man nur so einen Scheisstitel mit so einem bekloppten Text erstellen. Da haetten verdammt und verfickt nochmal viel mehr bescheuerte Schimpfwoerter reingehoert, damit jeder doofe User weiss, was fuer ein abgefuckter Rocker die Frage gestellt hat. :rolleyes:
     
  9. Josh TE

    Josh TE Registrierter Benutzer

    Im Board seit:
    13.03.04
    Zuletzt hier:
    22.04.09
    Beiträge:
    751
    Ort:
    Berlin
    Zustimmungen:
    3
    Kekse:
    294
    Erstellt: 25.12.05   #9

    Junge spielt der Typ das schlecht.Und welch ein grauenhafter Sound.
    Und sowas stellt der ins Netz. Ist wohl ein gutes Beispiel dafür dass es doch nicht so einfach zu spielen ist wie manche denken.
     
  10. Decadox

    Decadox Registrierter Benutzer

    Im Board seit:
    16.01.05
    Zuletzt hier:
    10.02.14
    Beiträge:
    579
    Zustimmungen:
    5
    Kekse:
    2.292
    Erstellt: 25.12.05   #10
    :cool: Genau
     
  11. ATK

    ATK Threadersteller Registrierter Benutzer

    Im Board seit:
    02.10.05
    Zuletzt hier:
    4.06.09
    Beiträge:
    261
    Ort:
    N ü r n b e r g
    Zustimmungen:
    0
    Kekse:
    42
    Erstellt: 25.12.05   #11

    janz ruhig junge......schon deine nerven.
     
  12. LennyNero

    LennyNero HCA Gitarre: Racks & MIDI Ex-Moderator HCA

    Im Board seit:
    02.12.03
    Zuletzt hier:
    9.12.16
    Beiträge:
    17.525
    Ort:
    Wetzlar
    Zustimmungen:
    288
    Kekse:
    35.627
    Erstellt: 25.12.05   #12

    Kollege, was erwartest du dann... du garnierts den Thementitel und den Beitrag selbst mit fluechen... um von deiner eigenen Unfaehigkeit abzulenken, und wunderst dich dann, das ich (und auch andere) sich darueber aufregen?


    Du erwartest doch HIlfe, ist es da zu viel verlangt sich etwas um seine Sprache zu bemuehen? Wir ihr euch bei euch daheim unterhaltet ist uns allen hier egal, gebe dir hier einfach etwas Muehe.
     
  13. booooobby05

    booooobby05 Registrierter Benutzer

    Im Board seit:
    23.12.05
    Zuletzt hier:
    10.12.09
    Beiträge:
    194
    Ort:
    krefeld
    Zustimmungen:
    0
    Kekse:
    34
    Erstellt: 25.12.05   #13
    rofl...ist dia denn jetzt geholfen...........?
     
  14. Stoli

    Stoli Registrierter Benutzer

    Im Board seit:
    25.04.05
    Zuletzt hier:
    6.04.15
    Beiträge:
    1.351
    Ort:
    Amberg
    Zustimmungen:
    0
    Kekse:
    1.399
    Erstellt: 25.12.05   #14
    Weisst du was..
    1. Benutz mal die suche, gibts tausende Threads
    2. Hört sich des so als müsstest du des lernen und du nicht serh viel lust drauf hast. Wenn das so is, dann lass es lieber.;)
     
  15. booooobby05

    booooobby05 Registrierter Benutzer

    Im Board seit:
    23.12.05
    Zuletzt hier:
    10.12.09
    Beiträge:
    194
    Ort:
    krefeld
    Zustimmungen:
    0
    Kekse:
    34
    Erstellt: 25.12.05   #15
    jap echt voll die graupe..nja.......aba man sieht die figur...obwohl das bei mir glaub ich auch anders aussieht:D...andres vid habsch net gefunden:(
     
Die Seite wird geladen...

mapping