powerchords

von dennisbieser, 29.05.04.

  1. dennisbieser

    dennisbieser Registrierter Benutzer

    Im Board seit:
    02.11.03
    Zuletzt hier:
    26.01.16
    Beiträge:
    953
    Ort:
    Dinslaken
    Zustimmungen:
    1
    Kekse:
    114
    Erstellt: 29.05.04   #1
    wer kann mir mehr dazu sagen? schreibt mal plz auf :confused:
     
  2. nike_esp

    nike_esp Registrierter Benutzer

    Im Board seit:
    30.04.04
    Zuletzt hier:
    29.04.13
    Beiträge:
    3.054
    Zustimmungen:
    1
    Kekse:
    414
    Erstellt: 29.05.04   #2
    Powerchords 6th sting, large E.

    e :------------------------------------------------------
    B :------------------------------------------------------
    G :------------------------------------------------------
    D :-2--3--5--7--9---10--12---14--------------------------
    A :-2--3--5--7--9---10--12---14--------------------------
    E :-0--1--3--5--7---8---10---12--------------------------
    E F G A B C D E

    Powerchords on the A string

    e :------------------------------------------------------
    B :------------------------------------------------------
    G :-2--4--5--7--9--10-12--14--------------------------------
    D :-2--4--5--7--9--10-12--14-----------------------------
    A :-0--2--3--5--7--8--10--12-----------------------------
    E :------------------------------------------------------
    A B C D E F G A

    Powerchords on the D string

    e :------------------------------------------------------
    B :-2--4--5--7--9--11-12--14-----------------------------
    G :-2--4--5--7--9--11-12--14-----------------------------
    D :-0--2--3--5--7--9--10--12-----------------------------
    A :------------------------------------------------------
    E :------------------------------------------------------
    D E F G A B C D


    ... ;) ... weiss nicht genau was du wissen willst !

    edit: Irgendwie gehen die chord namen nicht unter den chord :(
     
  3. dotvoid

    dotvoid Registrierter Benutzer

    Im Board seit:
    15.05.04
    Zuletzt hier:
    23.10.10
    Beiträge:
    1.725
    Zustimmungen:
    0
    Kekse:
    195
    Erstellt: 29.05.04   #3
    du hast dich beim d-string vertan, es muss B + 1 sein, dann stimmt's (siehe pentatonik) :)
     
  4. franticfanatic

    franticfanatic Registrierter Benutzer

    Im Board seit:
    12.03.04
    Zuletzt hier:
    9.02.15
    Beiträge:
    284
    Zustimmungen:
    0
    Kekse:
    10
    Erstellt: 29.05.04   #4
    warte mal kurz, da hab ich jetzt n problem ist den das hier z.B. kein Powerchord

    D--4-
    A--4-
    E--2-

    außerdem ist das doch auch noch einer(also ne andere art):

    D-6-
    A-4-
    E-2-
    oder der
    D-4
    A-2
    E-2

    also es gibt doch noch vielmehr arten oder habe ich da was falsche gelernt.

    Ich hab das von www.metallica-tabs.net
    unter der rubrik Guitar Lesson!
    is meiner meinung nach sehr brauchbar
     
  5. dotvoid

    dotvoid Registrierter Benutzer

    Im Board seit:
    15.05.04
    Zuletzt hier:
    23.10.10
    Beiträge:
    1.725
    Zustimmungen:
    0
    Kekse:
    195
    Erstellt: 30.05.04   #5
    er hat nach reinen grundtönen dargestellt, deshalb sind da auch nicht alle drauf die das griffbrett hergibt.
     
  6. Salomon

    Salomon Registrierter Benutzer

    Im Board seit:
    21.09.03
    Zuletzt hier:
    7.02.14
    Beiträge:
    349
    Zustimmungen:
    4
    Kekse:
    10
    Erstellt: 30.05.04   #6
    Hi,

    doch ist einer Fis5.
     
Die Seite wird geladen...

mapping