RHCP-Snow(hey oh)

von Epi400, 02.01.07.

  1. Epi400

    Epi400 Registrierter Benutzer

    Im Board seit:
    05.09.06
    Zuletzt hier:
    3.01.14
    Beiträge:
    85
    Zustimmungen:
    0
    Kekse:
    10
    Erstellt: 02.01.07   #1
    Grüß euch ,
    sry wenn es dieses thema evt. schon mal gab aber die sufu geht ja nicht.
    Also bei diesen lied blick ichs echt nicht wo wann meine finger sein müssen wenn jemand von euch nen workshop kennt wäre ich dankbar.

    Danke , epi
     
  2. Mace

    Mace Registrierter Benutzer

    Im Board seit:
    07.03.04
    Zuletzt hier:
    7.04.14
    Beiträge:
    24
    Zustimmungen:
    0
    Kekse:
    10
    Erstellt: 02.01.07   #2
    Also ich habe für mich folgende Möglichkeit herausgefunden.. John spielt das zwar ein bisschen anders aber mit meinem Fingersatz komm ich nach langem üben (eieiei haben die Finger gekrampft :) ) am besten klar:


    Code:
    [B]Z[/B]eigefinger
    [B]R[/B]ingfinger
    [B]K[/B]leiner finger
    ----------------------------
    ----------------------------
    --------4-----4-6-4-----4--
    -----6-----6----------6-----
    --6-------------------------
    ----------------------------
      K   R  Z  R  Z-R-Z  R  Z
    
    ---------------------------
    ----------------------------
    --------4-----4-6-4-----4--
    -----6-----6----------6-----
    --7-------------------------
    ----------------------------
      K   R  Z  R  Z-R-Z  R  Z
    
    ------------------------------
    ------------------------------
    ------------------------------
    --------4------4-6-4----4---
    -----6-----6----------6------
    --7--------------------------
      K   R  Z  R  Z-R-Z  R  Z
    
    ---------------------------
    ----------------------------
    --------6-----6-8-6-----6--
    -----8-----8----------8-----
    --9-------------------------
    ----------------------------
      K   R  Z  R  Z-R-Z  R  Z
    
     
  3. Disgracer

    Disgracer A-Gitarren-Mod Moderator

    Im Board seit:
    18.10.06
    Zuletzt hier:
    9.12.16
    Beiträge:
    4.970
    Ort:
    Dortmund
    Zustimmungen:
    1.244
    Kekse:
    47.175
    Erstellt: 02.01.07   #3
  4. Epi400

    Epi400 Threadersteller Registrierter Benutzer

    Im Board seit:
    05.09.06
    Zuletzt hier:
    3.01.14
    Beiträge:
    85
    Zustimmungen:
    0
    Kekse:
    10
    Erstellt: 03.01.07   #4
    Hey dickes danke klappt schon ganz gut bloß der 3 und 4 wechsel sind n weng abgeackt aber übung macht ...
     
Die Seite wird geladen...

mapping