Schwierigkeiten bei "Pardon Me"

von Troublemaker, 20.02.04.

  1. Troublemaker

    Troublemaker Registrierter Benutzer

    Im Board seit:
    18.08.03
    Zuletzt hier:
    26.03.05
    Beiträge:
    110
    Zustimmungen:
    0
    Kekse:
    10
    Erstellt: 20.02.04   #1
    Hi zusammen.

    ich hab ein paar probleme. ich will von incubus pardon me spielen. der refrain und so geht easy, aber der verse hats (aus meiner sicht) in sich. ich weiss nicht wie ich des ganze greifen soll.
    ich hab hier mal nen link zu den tabs. hab sie in ne word datei kopiert:
    http://mitglied.lycos.de/homeofpsycho/

    kann mir dabei bitte jemand helfen? könnt auch sein dass die tabs verkehrt sind, aber ich find keine anderen
     
  2. Troublemaker

    Troublemaker Threadersteller Registrierter Benutzer

    Im Board seit:
    18.08.03
    Zuletzt hier:
    26.03.05
    Beiträge:
    110
    Zustimmungen:
    0
    Kekse:
    10
    Erstellt: 21.02.04   #2
    hat keiner nen tipp für mich, welchen fingersatz ich verwenden kann bzw wie ich die akkorde nacheinander leicht greifen kann?
    wäre für jede hilfe sehr dankbar.
     
  3. Little_Raven

    Little_Raven Registrierter Benutzer

    Im Board seit:
    20.08.03
    Zuletzt hier:
    28.04.10
    Beiträge:
    1.142
    Zustimmungen:
    2
    Kekse:
    1.168
    Erstellt: 25.02.04   #3
    HI,

    ich glaube du meinst eher das Intro oder?!

    Intro
    E|----------------------------------------------
    B|-------------0----------------------0----------
    D|-------4--------4---------------4-----4-------
    G|---2------2--------2--------2------------2----
    A|4---------------------4----------------------4--
    E|--------------------------5--------------------
    ---3--1--3--1-----3--1-3-4--1--3------3--1-3

    Für den Verse müsste alles bis auf das A klar sein

    Akkord Fingersatz

    0
    0
    2 --------4 oder 3
    2 --------3 oder 2
    0
     
  4. Troublemaker

    Troublemaker Threadersteller Registrierter Benutzer

    Im Board seit:
    18.08.03
    Zuletzt hier:
    26.03.05
    Beiträge:
    110
    Zustimmungen:
    0
    Kekse:
    10
    Erstellt: 25.02.04   #4
    nene ich mein schon den verse, vielleicht stell ich mich dafür auch einfach zu dumm an, aber ich krieg den wechsel nicht so schnell hin. und da dachte ich eben, dass ich den falschen fingersatz nehm. hab aber keine ahnung wie ich des greifen soll.
     
  5. longdays_walk

    longdays_walk Registrierter Benutzer

    Im Board seit:
    30.12.06
    Zuletzt hier:
    2.01.07
    Beiträge:
    1
    Zustimmungen:
    0
    Kekse:
    10
    Erstellt: 30.12.06   #5
    Hiho, habe mit dem verse auch so meine Probleme, allerdings mit dem aus der acoustic version. Das hier ist ein tab, der schonmal gut weiterhilft. Aber ich bekomme auch nach langem üben immer nochkein Gefühl für den Wechsel zwischen picking und Anschlag. So long


    Benjamin



    e|--------------------------------------------------------------|
    B|-----7---------7-7-7------------------------------------------|
    G|-----4---------4-4-4------------6-6-6--------6-6-6------------|
    D|--6--6---------6-6-6------------5-5-5--------5-5-5------------|
    A|---------0--7--7-7-7---7--0--6--6-6-6--6--6--6-6-6------------|
    E|--------------------------------------------------------------|

    |-----------0-0-0-----------------0---------0-0-----0----------|
    |-----------0-0-0-----------------0---------0-0-----0----------|
    |-----------8-8-8------8-8-8------9---------9-9-----9----------|
    |-----------6-6-6------9-9-9------7---------7-7-----7----------|
    |--6--0--4--4-4-4------9-9-9---5--5--5---5--5-5--5--5--5-5-----|
    |-------------------7--7-7-7-----------------------------------|

    |-----------0--------------------------------------------------|
    |-----------0--------------------------------------------------|
    |--------8-----8--------8-8-8------8-8-8-8-------8---8-8-------|
    |-----6-----------------9-9-9------9-9-9-9-------9---9-9-------|
    |--4--------------4-----9-9-9---7--7-7-7-7--7-7--7---7-7----6--|
    |--------------------4--7-7-7-----------------------------7----|

    |-------------------0-----0---0---0-0-0-0-0---0-0-0---0--------|
    |--7-7--------------0-----0---0---0-0-0-0-0---0-0-0---0--------|
    |--8-------------4-----4------2---2-2-2-2-2---2-2-2---2--------|
    |--8----------4---------------2---2-2-2-2-2---2-2-2---2--------|
    |--------6\2------------------0---0-0-0-0-0---0-0-0---0--------|
    |--------------------------------------------------------------|

    edit:

    YouTube - Guitar Lesson with Mike Einziger

    hier erklärt er wie er drauf kommt
     
Die Seite wird geladen...

mapping