Solo (Seek and Destroy)

von _hetfield_87, 19.12.05.

  1. _hetfield_87

    _hetfield_87 Registrierter Benutzer

    Im Board seit:
    09.12.05
    Zuletzt hier:
    23.04.06
    Beiträge:
    12
    Zustimmungen:
    0
    Kekse:
    10
    Erstellt: 19.12.05   #1
    Hallo,

    Ich finde nirgends richtige Tabs für das Solo von Seek and Destroy von Metallica! Weiß da irgend jemand was?

    gruß
    hetfield
     
  2. Sicmaggot08

    Sicmaggot08 Registrierter Benutzer

    Im Board seit:
    27.09.04
    Zuletzt hier:
    4.12.16
    Beiträge:
    2.083
    Ort:
    Wien
    Zustimmungen:
    362
    Kekse:
    7.149
  3. roastbeef

    roastbeef Registrierter Benutzer

    Im Board seit:
    30.11.03
    Zuletzt hier:
    25.07.16
    Beiträge:
    3.424
    Ort:
    Graz
    Zustimmungen:
    72
    Kekse:
    4.088
    Erstellt: 19.12.05   #3
    hier findest du 100% richtige tabs.
    der typ hat ein irrsinniges gehör und widmet sehr viel zeit seinen tabs die er dann der öffentlichkeit zur verfügung stellt.

    http://www.abysslord.com/
     
  4. the quiet place

    the quiet place Gesperrter Benutzer

    Im Board seit:
    19.12.05
    Zuletzt hier:
    1.06.07
    Beiträge:
    55
    Zustimmungen:
    0
    Kekse:
    10
    Erstellt: 19.12.05   #4
    ich würd diese page empfeheln:
    www.911tabs.com
    das ist sowas wie google nur halt für tabs im internet.
    der einzige nachteil: viele tabs sind doppelt aufgelistet, aber sonst findet man da fast alles ;-)
     
  5. Joscha

    Joscha Registrierter Benutzer

    Im Board seit:
    15.05.05
    Zuletzt hier:
    13.03.12
    Beiträge:
    498
    Ort:
    Cuxhaven
    Zustimmungen:
    0
    Kekse:
    605
    Erstellt: 19.12.05   #5
    also ich seh da jetz keine solos?

    hier:
    PHP:
    Spur 1
                                                         
    E
    ||--------------------|-----------------------12---|
    B||--------------------|----------------12/-15------|
    G||--------------------|----------------------------|
    D||--12----------------|--11--------10--------------|
    A||--10----------------|--9---------8---------------|
    E||--------------------|----------------------------|


                                                       
    --
    15p12----12-15p12-17p12-15p12----12-15p12-17p12-|
    --------
    12----------------------15----------------|
    --------------------------------------------------|
    --------------------------------------------------|
    --------------------------------------------------|
    --------------------------------------------------|


                                                                               
    --
    15p12-----12------12----------|------------------|----------------------|
    --------
    15------15------15~-----|------------------|----------------------|
    --------------------------------|------------------|----------------------|
    --------------------------------|------------------|--
    11--------10--------|
    --------------------------------|------------------|--
    9---------8---------|
    --------------------------------|------------------|----------------------|


                                                                                   
    --
    7---7-10p7----7-7---------------|------------------------|------------------|
    -------------
    10------10p7-10p7----|------------------------|------------------|
    -------------------------------
    9--|--7-----7--9r--7--------|------------------|
    ----------------------------------|-----
    9-----------9~-----|------------------|
    ----------------------------------|------------------------|------------------|
    ----------------------------------|------------------------|------------------|


                                                            
    ----------------------|--
    17~-----------16--15--14------|
    ----------------------|-------------
    15-------------15--|
    ----------------------|----------
    15--------------------|
    ------
    11----10--------|--------------------------------|
    ------
    9-----8---------|--------------------------------|
    ----------------------|--------------------------------|


                                                                                 
    ----------------------------|------------------|------------------
    18--20-20-|
    --
    14----------15r---15~-----|------------------|----------------------------|
    ------
    16--------------------|------------------|----------------------------|
    ----------
    17----------------|------------------|--11--------10--------------|
    ----------------------------|------------------|--
    9---------8---------------|
    ----------------------------|------------------|----------------------------|


                                                          
    --
    22b20-18-22-19-19-21-21-17-15-19-16-14-14-17-14-12-|
    -----------------------------------------------------|
    -----------------------------------------------------|
    -----------------------------------------------------|
    -----------------------------------------------------|
    -----------------------------------------------------|


                                                                              
    --
    16-12-11-14-12/11-9/7-10p7----7-10p7------|----------------------------|
    -----------------------------
    10--------10-7-|--10p7-5--------7-----------|
    --------------------------------------------|----------
    7--9-----9--9r--7-|
    --------------------------------------------|----------------------------|
    --------------------------------------------|----------------------------|
    --------------------------------------------|----------------------------|


                                                          
    ------------------------|----------------------------|
    ------------------------|----------------------------|
    --
    9--7-----7~-----------|----------------------------|
    --------
    9---------------|-----------7--9p7----7h9-9--|
    ------------------------|-----
    5/-9---------9---------|
    ------------------
    5--5--|--7-------------------------|


                                                            
    --------------------------|----------------------------|
    --------------------------|-----------
    7--10p7----------|
    --
    7--9--9r--7-9--7--7r----|--7--9--9b---------9--7-----|
    -----------------------
    9--|-------------------------9--|
    --------------------------|----------------------------|
    --------------------------|----------------------------|


                                                                            
    ----------------------------|------
    12------------------12--------------|
    ------------------------
    12--|--15b-----15p12----12-15b-----15p12-12-15-|
    --
    7--9r-----7--9b---14------|----------------14------------------------|
    ----------------------------|------------------------------------------|
    ----------------------------|------------------------------------------|
    ----------------------------|------------------------------------------|


                                         
    ------
    12----------------12------12--|
    --
    15b-----15p12-15--15b-----15------|
    ------------------------------------|
    ------------------------------------|
    ------------------------------------|
    ------------------------------------|


                                                       
    --
    15p-12------------------------------------------|
    ----------
    15--12------12--15p-12------------------|
    ------------------
    14--------------14--12------12--|
    ------------------------------------------
    14------|
    --------------------------------------------------|
    --------------------------------------------------|


                                             
    ----------------------------------------|
    ----------------------------------------|
    --
    14p-12--------------------------------|
    ----------
    14--12------------------------|
    ------------------
    14--12------------12--|
    --------------------------
    15~---15------|


                                                       
    --------------------------------------------------|
    --------------------------------------------------|
    --------------------------------------
    12------12--|
    --------------
    12------12--14--12--14------14------|
    --
    14--12--14------14------------------------------|
    --------------------------------------------------|


                                                       
    --------------------------------------
    12------12--|
    --------------
    12------12--15--12--15------15------|
    --
    14--12--14------14------------------------------|
    --------------------------------------------------|
    --------------------------------------------------|
    --------------------------------------------------|


                                                                             
    --
    15p-12-------------------------------------|--------------------------|
    ----------
    15--12/-11--12--15p-12--10---------|--------------------------|
    --------------------------------------
    12/-9--|--------------------------|
    ---------------------------------------------|--------------------------|
    ---------------------------------------------|-----------
    3--2--0--------|
    ---------------------------------------------|--
    3--2--0-----------3--0--|


                                                    
    --------------------------|-------------------||
    --------------------------|-------------------||
    --------------------------|--
    2----------------||
    --------------------------|--
    2----------------||
    -----------
    3--2--0--------|--0----------------||
    --
    3--2--0-----------3--2--|-------------------||

     
  6. bimbimfranzi.xx

    bimbimfranzi.xx Registrierter Benutzer

    Im Board seit:
    16.10.05
    Zuletzt hier:
    20.12.12
    Beiträge:
    878
    Ort:
    nirgends
    Zustimmungen:
    15
    Kekse:
    1.174
    Erstellt: 20.12.05   #6
    würd ich mal nicht sagen: schau auf Maiden - The Trooper, da sind einige sachen dabei die nicht stimmen ;)
    mfg

    back to topic:

    schau mal hier:
    http://www.mikesguitarsite.co.uk/tabs/metallica/seek_and_destroy.php
     
  7. katzengreis

    katzengreis Registrierter Benutzer

    Im Board seit:
    12.11.03
    Zuletzt hier:
    2.05.16
    Beiträge:
    339
    Ort:
    NRW
    Zustimmungen:
    2
    Kekse:
    115
    Erstellt: 20.12.05   #7
    hä? du hast doch das solo unten als tab angegeben!? das ist meiner meinung nach auch ziemlich korrekt.
     
  8. Joscha

    Joscha Registrierter Benutzer

    Im Board seit:
    15.05.05
    Zuletzt hier:
    13.03.12
    Beiträge:
    498
    Ort:
    Cuxhaven
    Zustimmungen:
    0
    Kekse:
    605
    Erstellt: 20.12.05   #8
    ...ich meinte auf der seite die roastbeef vorgeschlagen hat
     
Die Seite wird geladen...

mapping