Tab: Nightwish - Wish I had an Angel... Erklärung?

von liosaphie, 19.11.06.

  1. liosaphie

    liosaphie Registrierter Benutzer

    Im Board seit:
    19.11.06
    Zuletzt hier:
    28.11.06
    Beiträge:
    2
    Zustimmungen:
    0
    Kekse:
    10
    Erstellt: 19.11.06   #1
    Ich hab im Internet den Tab zu "Wish I had an Angel" von Nightwis gefunden. Nur leider kann ich damit nicht allzu viel anfangen. Kann mir jemand erklären was ich da eigentlich zu spielen habe wenn das so gegeben ist?:

    Tune in Dropped D
    Intro
    e:-----------------------------------------------------------------------------|
    B:-----------------------------------------------------------------------------|
    G:-----------------------------------------------------------------------------|
    D:-2-3-2--0-22-0-22--2-3-2--0-22--3-5-3-0--2-3-3--0-22--0-22--2-0-3-0-5-3-0-2--|
    A:-2-3-2--0-22-0-22--2-3-2--0-22--3-5-3-0--2-3-2--0-22--0-22--2-0-3-0-5-3-0-2--|
    D:-2-3-2--0-22-0-22--2-3-2--0-22--3-5-3-0--2-3-2--0-22--0-22--2-0-3-0-5-3-0-2--|

    e:-----------------------------------------------------------------------------|
    B:-----------------------------------------------------------------------------|
    G:-----------------------------------------------------------------------------|
    D:---2-0-3-0-5-3-0-2---22-66-55------------------------------------------------|
    A:---2-0-3-0-5-3-0-2---22-66-55------------------------------------------------|
    D:---2-0-3-0-5-3-0-2---22-66-55------------------------------------------------|
     
  2. SUPAHELD

    SUPAHELD Registrierter Benutzer

    Im Board seit:
    08.12.05
    Zuletzt hier:
    21.03.11
    Beiträge:
    105
    Ort:
    Georgsmarienhütte
    Zustimmungen:
    0
    Kekse:
    10
    Erstellt: 19.11.06   #2
    Hey,
    also Tune in Drop D heißt erstmal das du deine E-Saite eine ganzen Ton runter auf ein D stimmen sollst. In der Tab selber stehen dann erstmal die Buchstaben für die Saiten. Da du die Gitarre runtergestimmt hast, ist das unterste D deine ehemalige E-Saite, dann die A, dann die eigentliche D-Saite usw. Zu den Saiten gehärt jetzt jeweil eine Linie auf der Zahlen stehen. Die stehen für die Bünde in denen du die Saite greifen und dann natürlich anschlagen sollst. Steht also auf der Linie der A Saite eine 2, sollst du die A-Saite im 2. Bund greifen und dann die A-Saite anschlagen. Eine 0 bedeutet das du die Saite anschlagen sollst ohne darauf irgendetwas zu greife, du sollst also eine "leere Saite" anschlagen. Jetzt musst du die Tab eigentlich nur noch von links nach rechts lesen, alles was übereinander steht muss gleichzeitig angeschlagen werden.
    Ich hoff es hat geholfen :-) Viel Spaß dann mit dem Lied.
    Pascal
     
  3. riddler

    riddler Registrierter Benutzer

    Im Board seit:
    14.11.05
    Zuletzt hier:
    28.03.15
    Beiträge:
    3.266
    Ort:
    BaWü
    Zustimmungen:
    4
    Kekse:
    6.132
    Erstellt: 19.11.06   #3
    Was auch mal noch gesagt sei ist das Emppu (Gitarrist @ Nightwish) entweder auf Standard E oder Standard D spielt und keine Dropped Tunings benutzt.
     
  4. liosaphie

    liosaphie Threadersteller Registrierter Benutzer

    Im Board seit:
    19.11.06
    Zuletzt hier:
    28.11.06
    Beiträge:
    2
    Zustimmungen:
    0
    Kekse:
    10
    Erstellt: 19.11.06   #4
    ich hab nur kopiert wies da stand
     
  5. saatkraehe

    saatkraehe Registrierter Benutzer

    Im Board seit:
    09.06.06
    Zuletzt hier:
    23.02.16
    Beiträge:
    213
    Ort:
    wien
    Zustimmungen:
    4
    Kekse:
    21
    Erstellt: 19.11.06   #5
    hab das songbook von once ... das ist durchgehend auf standard d ... also jede saite einen ton tiefer ...
     
  6. riddler

    riddler Registrierter Benutzer

    Im Board seit:
    14.11.05
    Zuletzt hier:
    28.03.15
    Beiträge:
    3.266
    Ort:
    BaWü
    Zustimmungen:
    4
    Kekse:
    6.132
    Erstellt: 19.11.06   #6
    soll ja keine kritik gegen dich sein.

    ich find das nur schon ziemlich arg das wirklich so gut wie jedes(zumindest von Once) nighwish tab in drop tuning ist, man könnte meinen irgendwelche freaks machen nix anderes wie tabs am fliessband und nehmen halt die stimmung die grad passt anstatt ein wenig zu recherchieren und rauszufinden das er immer standard spielt.

    Frage:
    Antwort:
    http://www.nightwish.com/de/fans/nightmail?month=10&year=2006
     
Die Seite wird geladen...

mapping