Tabs/Noten - Pippi Langstrumpf

von Jeff666, 08.01.07.

  1. Jeff666

    Jeff666 Registrierter Benutzer

    Im Board seit:
    11.04.05
    Zuletzt hier:
    23.11.16
    Beiträge:
    339
    Ort:
    Hamburg
    Zustimmungen:
    7
    Kekse:
    18
    Erstellt: 08.01.07   #1
    Moin!

    Da die Such funktion nicht funktioniert finde ich leider meinen alten Thread nicht mehr.
    Ich suche die Noten zu Pippi Langstrumpf...(als Riff)

    Wäre cool wenn mir jemand weiter helfen könnte


    dankööö
     
  2. JuanCarlos

    JuanCarlos Registrierter Benutzer

    Im Board seit:
    09.05.05
    Zuletzt hier:
    4.12.16
    Beiträge:
    368
    Zustimmungen:
    28
    Kekse:
    984
    Erstellt: 08.01.07   #2
    Nur die Melodie oder was? Welchen Grundton hättest du denn gerne, dann tab ich dir das eben.
     
  3. Jeff666

    Jeff666 Threadersteller Registrierter Benutzer

    Im Board seit:
    11.04.05
    Zuletzt hier:
    23.11.16
    Beiträge:
    339
    Ort:
    Hamburg
    Zustimmungen:
    7
    Kekse:
    18
    Erstellt: 09.01.07   #3
    Moin!

    Ja die Melodie...wäre cool :)
    Also die Akkorde sind ja C/F/G also Grundton C?! :o
     
  4. zbelosa

    zbelosa Registrierter Benutzer

    Im Board seit:
    22.12.06
    Zuletzt hier:
    26.04.12
    Beiträge:
    27
    Ort:
    München
    Zustimmungen:
    0
    Kekse:
    31
    Erstellt: 10.01.07   #4
    ohh ja,
    dass würd mir auch mal gefallen. find ich auch leider nirgends. danke für deine arbeit und danke im voraus.
     
  5. JuanCarlos

    JuanCarlos Registrierter Benutzer

    Im Board seit:
    09.05.05
    Zuletzt hier:
    4.12.16
    Beiträge:
    368
    Zustimmungen:
    28
    Kekse:
    984
    Erstellt: 10.01.07   #5
    so, zuerst mal der "3 mal 3 macht vier..."-part
    -------------------------------------------------------------------------------
    -----------------------------------------------------------------------------
    ----------2-----------0----3---2---0----------------0--------------------2----
    -----3---------3-------------------------3----2----------------2----3-------
    -3----------------------------------------------------------3-------------------
    -------------------------------------------------------------------------------



    ------------------------------------------------------------------------------
    -----------------------------------------------------------------------------
    ----------2-----------0----3---2---0----------------0---------------------
    -----3---------3-------------------------3----2-----------------2----3---------
    -3-----------------------------------------------------------3-----------------
    -------------------------------------------------------------------------------


    dann "ich hab ein haus, ein äffchen und ..."

    -------------------------1----0--------------------------0-----------------------------------------------------
    ---------1-----3--------------------3-----1-------1---------3---1------------------3----1-------------------1
    -2---3----------------------------------------3-----------------------3----2----3-----------3--2--0--2--3---
    -----------------------------------------------------------------------------------------------------------------
    ------------------------------------------------------------------------------------------------------------------
    ------------------------------------------------------------------------------------------------------------------


    -------------------------1----0--------------------------0-----------------------------------------------------
    ---------1-----3--------------------3-----1-------1---------3---1------------------3----1--------------------
    -2---3----------------------------------------3-----------------------3----2----3-----------3--2--0--2--0---
    ---------------------------------------------------------------------------------------------------------------3-
    ------------------------------------------------------------------------------------------------------------------
    ------------------------------------------------------------------------------------------------------------------

    dann "hey pippi langstrumpf..."

    --------------------------------------------------------------------------------------
    --------------------------------------------------------------------------------------
    -2--2--2--3--3--3--2--0--0--0------------0--2--2--2--3--3--3--2--0--0---------
    -----------------------------------3--2--3-----------------------------------3--2--3
    --------------------------------------------------------------------------------------
    --------------------------------------------------------------------------------------

    hab ich jetzt zwar aus der erinnerung gemacht, also ohne das lied zu haben, sollte aber trotzdem passen
    *hust* beitrag bewerten button ist links *hust* ;)
     
  6. JeyDe

    JeyDe Registrierter Benutzer

    Im Board seit:
    09.01.07
    Zuletzt hier:
    21.02.07
    Beiträge:
    4
    Ort:
    Stade
    Zustimmungen:
    0
    Kekse:
    10
    Erstellt: 10.01.07   #6
    hab zwar nicht danach gefragt :) aber trotzdem danke...
    klingt alles.. scheinst n gutes gedächtnis zu haben xD

    mfg
    jd
     
  7. Vauge

    Vauge Registrierter Benutzer

    Im Board seit:
    29.10.04
    Zuletzt hier:
    13.11.09
    Beiträge:
    146
    Ort:
    Bremerhaven
    Zustimmungen:
    0
    Kekse:
    99
    Erstellt: 12.01.07   #7
  8. Vauge

    Vauge Registrierter Benutzer

    Im Board seit:
    29.10.04
    Zuletzt hier:
    13.11.09
    Beiträge:
    146
    Ort:
    Bremerhaven
    Zustimmungen:
    0
    Kekse:
    99
    Erstellt: 16.01.07   #8
  9. henrysdream

    henrysdream Registrierter Benutzer

    Im Board seit:
    10.01.05
    Zuletzt hier:
    12.09.16
    Beiträge:
    138
    Ort:
    NRW
    Zustimmungen:
    13
    Kekse:
    133
    Erstellt: 19.01.07   #9

    Hi Vauge,

    was ist das denn für eine Datei, ich kann es nicht öffnen. Habe ich wieder veraltet Software?

    Für Tipps wäre ich dankbar, würde mich nämlich interessieren ;)

    Gruss

    Henry
     
  10. SkaRnickel

    SkaRnickel Registrierter Benutzer

    Im Board seit:
    25.10.05
    Zuletzt hier:
    24.01.16
    Beiträge:
    3.877
    Ort:
    Mainz
    Zustimmungen:
    14
    Kekse:
    6.447
    Erstellt: 19.01.07   #10
  11. henne-whv

    henne-whv Registrierter Benutzer

    Im Board seit:
    22.08.06
    Zuletzt hier:
    29.03.07
    Beiträge:
    35
    Ort:
    Wilhelmshaven
    Zustimmungen:
    0
    Kekse:
    10
    Erstellt: 19.01.07   #11
    Es ist eine "Guitar Pro" Datei....das Programm zeigt die Tabs und spielt sie dir dann gleich als Midi (oder in der neuen Version sogar als Wave) vor.

    Lohnt sich auf jeden Fall zu "kaufen"....
     
  12. Vauge

    Vauge Registrierter Benutzer

    Im Board seit:
    29.10.04
    Zuletzt hier:
    13.11.09
    Beiträge:
    146
    Ort:
    Bremerhaven
    Zustimmungen:
    0
    Kekse:
    99
    Erstellt: 19.01.07   #12
    Naja, das war die alte unvollständige Datei. Im nächsten Post ist dann die neue vollständige Datei. GP4

    Greetz
     
  13. Vauge

    Vauge Registrierter Benutzer

    Im Board seit:
    29.10.04
    Zuletzt hier:
    13.11.09
    Beiträge:
    146
    Ort:
    Bremerhaven
    Zustimmungen:
    0
    Kekse:
    99
    Erstellt: 19.01.07   #13
    Im nächsten Post ..... das war die alte unvollständige Datei.

    Greetz
     
  14. Vauge

    Vauge Registrierter Benutzer

    Im Board seit:
    29.10.04
    Zuletzt hier:
    13.11.09
    Beiträge:
    146
    Ort:
    Bremerhaven
    Zustimmungen:
    0
    Kekse:
    99
    Erstellt: 19.01.07   #14
    Also jetzt hab ich schon 2mal versucht zu antworten, und es taucht hier nie auf, falls das später doch passiert, sorry für die Doppelposts ..

    @henrysdream - im nächsten Post ist die neue vollständige Datei
     
  15. blubbel

    blubbel Registrierter Benutzer

    Im Board seit:
    15.08.06
    Zuletzt hier:
    7.04.08
    Beiträge:
    3
    Zustimmungen:
    0
    Kekse:
    10
    Erstellt: 29.04.07   #15
    hey... ich hau das mal hier mit rein.. wollte mal fragen, ob irgendwer mal die lust verspührt von dem video die tabs aufzuschreiben.. wäre super nett.. ich bekomm es selber nämlich noch nicht hin.. und wollte meiner kleinen cousine ein gefallen tun.. :)

    http://www.youtube.com/watch?v=WcTKU9m2qqs
     
  16. CMatuschek

    CMatuschek Registrierter Benutzer

    Im Board seit:
    01.05.05
    Zuletzt hier:
    28.11.09
    Beiträge:
    876
    Ort:
    Wesel
    Zustimmungen:
    0
    Kekse:
    228
    Erstellt: 30.04.07   #16
    Wizo haben das mal gecovert, falls dich das weiterbringt.
     
  17. Schlafie

    Schlafie Registrierter Benutzer

    Im Board seit:
    27.02.06
    Zuletzt hier:
    11.08.14
    Beiträge:
    207
    Ort:
    Stuttgart
    Zustimmungen:
    0
    Kekse:
    32
    Erstellt: 30.04.07   #17
    Huhu, du hast Glück, mir war grad langwielig :D
    die hohe e-saite musst dir dazudenken, habs halt in meinem Tuning aufgeschrieben :D

    Viel spass damit
     

    Anhänge:

  18. blubbel

    blubbel Registrierter Benutzer

    Im Board seit:
    15.08.06
    Zuletzt hier:
    7.04.08
    Beiträge:
    3
    Zustimmungen:
    0
    Kekse:
    10
    Erstellt: 30.04.07   #18
    uh danke schön...
     
  19. expRaptor

    expRaptor Registrierter Benutzer

    Im Board seit:
    17.02.08
    Zuletzt hier:
    13.02.15
    Beiträge:
    64
    Ort:
    Stockelsdorf
    Zustimmungen:
    1
    Kekse:
    85
    Erstellt: 17.02.08   #19
    hi...bin neu hier und hab das hier gefunden...danke das du die tabs reingestellt hast!!
    lg Swallow
     
  20. modosto

    modosto Registrierter Benutzer

    Im Board seit:
    10.12.09
    Zuletzt hier:
    11.12.09
    Beiträge:
    1
    Zustimmungen:
    0
    Kekse:
    10
    Erstellt: 10.12.09   #20
    hey leute, weis das ist nen necro. habe mich gerade und wegen diesem post erst an diesem board angemeldet!! ein meisterstueck vauge! tolle GP datei. dankeschoen!
     
Die Seite wird geladen...

mapping