Tin Soldier - Intro Riff

B
Butak
Registrierter Benutzer
Zuletzt hier
24.05.12
Registriert
26.04.08
Beiträge
8
Kekse
0
Ort
Münster
Hallo Zusammen,

ich versuche gerade für das Lied: Tin Soldier von Small Faces das Intro heraus zu arbeiten. Allerdings können ich und mein Bandkollege uns nicht einigen, wie es nun richtig ist.... :gruebel:

Aus diesem Grund wollte ich mal in die Runde fragen, wer es vllt. kennt, oder ob jemand Lust hat, es mal kurz auszuprobieren und mir seine Meinung zu sagen.

Ich meine es geht in etwa so

E(riff 1)
--------------------------
--------------------------
--------------------------
-------0-------0-------6-
-0h2-----0h2-----2-----
---------------------------

Er glaubt es geht so:

e ---------------------------|
B ---------------------------|
G ---------------------1v---|
D ---2-0--0h2-0---------|
A -------------------2------|
E ---------------------------|


Meinungen, Ideen, Vorschläge?!?!?!
 
Eigenschaft
 
D?de
D?de
Registrierter Benutzer
Zuletzt hier
14.04.17
Registriert
22.05.04
Beiträge
312
Kekse
913
Ort
Dresden
Hi,

ohne eine Gitarre zur Hand wäre mein Eindruck, es ist eine Kombination von euren beiden Vorschlägen:
Code:
G|-------------1~-|
D|------0h2h0----|
A|-0h2--------2---|
 

Ähnliche Themen

Neue Themen

Unser weiteres Online-Angebot:
Bassic.de · Deejayforum.de · Sequencer.de · Clavio.de · Guitarworld.de · Recording.de

Musiker-Board Logo
Oben