To be Strong

von Prallemann, 21.03.06.

  1. Prallemann

    Prallemann Registrierter Benutzer

    Im Board seit:
    21.03.06
    Zuletzt hier:
    28.06.06
    Beiträge:
    3
    Zustimmungen:
    0
    Kekse:
    10
    Erstellt: 21.03.06   #1
    Hola,

    erstmal hallo an alle. Ist nen super Forum und ich ärgere mich, dass ich erst so spät drauf aufmerksam geworden bin :)

    vielleicht könnt ihr mir ja helfen...ich such schon länger nach ne Tab für "To be strong" von den Beatsteaks, finde aber nur Basstabs. Danke schonmal!
     
  2. dahaka

    dahaka Registrierter Benutzer

    Im Board seit:
    02.10.05
    Zuletzt hier:
    28.12.15
    Beiträge:
    58
    Zustimmungen:
    0
    Kekse:
    46
    Erstellt: 21.03.06   #2
    ...habs jetzt auch auf die schnelle nicht im i-net gefunden! pass mal auf:



    MAINRIFF

    E5 C5 G5 D5
    e ----------------------------------------
    H ----------------------------------------
    G -------------5-5-5-5-----------7-7-7-7--
    D
    ----2-2-2-2--5-5-5-5--5-5-5-5--7-7-7-7--
    A ----2-2-2-2--3-3-3-3--5-5-5-5--5-5-5-5--
    E ----0-0-0-0-----------3-3-3-3-----------

    ZWISCHENDURCH :D

    H5 C5 D5
    e ----------------------------------------
    H ----------------------------------------
    G ----4-4-4-4--5-5-5-5
    --7-7-7-7-7-7-7-7---
    D ----4-4-4-4--5-5-5-5--7-7-7-7-7-7-7-7---
    A ----2-2-2-2--3-3-3-3--5-5-5-5-5-5-5-5---
    E ----------------------------------------

    H5 C5 H5 D5
    e ----------------------------------------
    H ----------------------------------------
    G ----4-4-4-4--5-5-5-5
    --4-4-4-4--7-7-7-7--
    D ----4-4-4-4--5-5-5-5--4-4-4-4--7-7-7-7--
    A ----2-2-2-2--3-3-3-3--2-2-2-2--5-5-5-5--
    E ----------------------------------------


    ...das war meine gute tag für heute...
     
  3. Prallemann

    Prallemann Threadersteller Registrierter Benutzer

    Im Board seit:
    21.03.06
    Zuletzt hier:
    28.06.06
    Beiträge:
    3
    Zustimmungen:
    0
    Kekse:
    10
    Erstellt: 21.03.06   #3
    Super, danke schön! Irgendwie krieg ich das aber trotzdem noch nicht so wirklich hin. Die zweite Gitarre spielt noch ne Melodie oder? Ansonsten hab ich keine Ahnung, wie der Anschlag sein soll.
     
  4. dahaka

    dahaka Registrierter Benutzer

    Im Board seit:
    02.10.05
    Zuletzt hier:
    28.12.15
    Beiträge:
    58
    Zustimmungen:
    0
    Kekse:
    46
    Erstellt: 22.03.06   #4
    2te Gitarre?!? keine Ahnung aber der Anschlag ist immer ganz primitiv!

    Immer: down,down, up... und ein bisschen feeling ;)
     
  5. Prallemann

    Prallemann Threadersteller Registrierter Benutzer

    Im Board seit:
    21.03.06
    Zuletzt hier:
    28.06.06
    Beiträge:
    3
    Zustimmungen:
    0
    Kekse:
    10
    Erstellt: 22.03.06   #5
    Jo habs jetzt soweit hingekriegt, danke nochmal! Dachte, dass was du als "Zwischenduch" beschrieben hast, würde mit 2 Gitarren gespielt werden. Also Rythmus und Melodie.
     
  6. zehneinsvierzehn

    zehneinsvierzehn Registrierter Benutzer

    Im Board seit:
    14.03.06
    Zuletzt hier:
    25.11.06
    Beiträge:
    15
    Ort:
    Mülheim/NRW
    Zustimmungen:
    0
    Kekse:
    10
    Erstellt: 24.03.06   #6


    Riff 1 / Intro:

    -----------0---------?-?-?----?-?-0--------------------?-?-?--0- <- ? = 0/2/3, variiert
    -----0---0-0----3----3-3-3----3-3-0---3----3-----3-----3-3-3--0-
    -----1---1-0----0----0-0-2----2-2-0---0----0-----0-----2-2-2--0-
    -----2---2-0----0----0-0-0----0-0-0---0----0-----0-----0-0-0--0-
    -2-2-2-2-2----3---0-----------------2---2-3--0----------------0-
    -0-0-0-0-0---------3---------------------------3----3-----------

    -----------------------------------|-dieser Teil wiederholt sich im Intro-|



    Riff 2 / Refrain,

    -----------0---------?-?-?--?-?-0-
    -----0---0-0----3----3-3-3--3-3-0-
    -----1---1-0----0----0-0-2--2-2-0-
    -----2---2-0----0----0-0-0--0-0-0-
    -2-2-2-2-2----3---0-------------0-
    -0-0-0-0-0---------3--------------


    So IN ETWA ist die Spielweise, GLAUBE !ICH! ^^

    die oben genannten powerchords sind schon richtig, allerdings ist es schon ein wenig komplizierter zu spielen, es kommen auch einige variationen vor, das muss man sich dann raushören, das hier ist auch nicht das ganze stück, sondern nur ein auszug aus dem intro / strophe bzw. refrain, muss man sich halt raushören, nur als kleinen anstoß ;)

    mfg
    zehneinsvierzehn

     
Die Seite wird geladen...

mapping