Unterschied von x x x , ..... , p.m.

von ~*MetalQueen*~, 31.12.07.

  1. ~*MetalQueen*~

    ~*MetalQueen*~ Registrierter Benutzer

    Im Board seit:
    03.12.07
    Zuletzt hier:
    2.10.09
    Beiträge:
    133
    Ort:
    nähe Heilbronn (B-W)
    Zustimmungen:
    0
    Kekse:
    63
    Erstellt: 31.12.07   #1
    Hi

    Bin jetzt schon bei einigen Lieder auf so etwas gestoßen:


    e|---------------------------------------------------------------------------|
    B|---------------------------------------------------------------------------|
    G|--0--------------0---------------0-------------2p0--2p0--------------------|
    D|-2---2-4---0----2----2-4---2----2----2-4----0-----4----4/5\4p0-------------|
    A|---------------------------------------------------------------------------|
    E|0-0-0---0-0--0-0--0-0---0-0--0-0--0-0----0-0--0----------------------------|
    x x x x x x x x x x x x x x x x x REPEAT 1x


    |---------------------------------|
    |---------------------------------|
    |---------------------------------|
    |---------7-------8-----7---5-----|
    |-5p2-----7-------8-----7---5-----|
    |-3p0-0-0-5-0-0-0-6-0-0-5-0-3-0-0-|
    pm.] pm...] pm.] pm pm.]


    |-------------------------------|-----------------[3x]--------------|
    |-------------------------------|-----------------------------------|
    |--7---8---7-----5-/-7---8---7--|---5-/-7---8---7-----5-/-7---8---7-|
    |--7---8---7-----5-/-7---8---7--|---5-/-7---8---7-----5-/-7---8---7-|
    |--5---6---5-----3-/-5---6---5--|---3-/-5---6---5-----3-/-5---6---5-|
    |------------0-0-------0---0---0|-0-------0---0---0-0-------0---0---|
    |PM--------- PM--------- PM--------- PM---------



    e|-----------------------------|
    B|-----------------------------|
    G|-----------------------------|
    D|-5\7--7---7--7-7-7--7-7-7-7--|
    A|-5\7--7---7--7-7-7--7-7-7-7--|
    E|-3\5--5---5--5-5-5--5-5-5-5--|
    PM ......................



    Jetzt wollt ich ma wissen was x , ...., un P.M. heiß?

    X heißt glaub die Seite stumm stellen oder so was
    ... an dauern
    p.m. = palm mute was au immer sein mag :o
     
  2. rocknrolf

    rocknrolf Registrierter Benutzer

    Im Board seit:
    22.05.06
    Zuletzt hier:
    9.06.13
    Beiträge:
    1.625
    Zustimmungen:
    5
    Kekse:
    951
    Erstellt: 31.12.07   #2
  3. cyrex

    cyrex Registrierter Benutzer

    Im Board seit:
    17.09.07
    Zuletzt hier:
    31.01.10
    Beiträge:
    179
    Zustimmungen:
    0
    Kekse:
    47
  4. wishboneX

    wishboneX Registrierter Benutzer

    Im Board seit:
    07.06.07
    Zuletzt hier:
    9.12.09
    Beiträge:
    1.393
    Ort:
    Berlin
    Zustimmungen:
    1
    Kekse:
    9.043
    Erstellt: 01.01.08   #4
  5. ~*MetalQueen*~

    ~*MetalQueen*~ Threadersteller Registrierter Benutzer

    Im Board seit:
    03.12.07
    Zuletzt hier:
    2.10.09
    Beiträge:
    133
    Ort:
    nähe Heilbronn (B-W)
    Zustimmungen:
    0
    Kekse:
    63
    Erstellt: 01.01.08   #5
    frohes neues jahr erst ma ;)

    mmh... also palm mute wird nur bei power chord angewendet wenn ich des jetzt richtig verstehe?

    Die Frage wird ist hier sicher schon weit verbreitet aber ich muss troztdem noch ma nachhaken :o :

    Was is´n der Unterschied zwischen nem Power Chord un nem normalem Arkkord :confused: ?

    Ich glaub ma was darüber gelesen zu haben dass beim Power Chord irgendwie immer die tiefste Seite den Grundton bildet oder so ^^"""...
     
  6. AWESOM-O

    AWESOM-O Registrierter Benutzer

    Im Board seit:
    10.06.07
    Zuletzt hier:
    4.12.16
    Beiträge:
    2.639
    Zustimmungen:
    254
    Kekse:
    8.654
    Erstellt: 01.01.08   #6
    z.B. E:

    PowerChord:

    e-----
    H-----
    G-----
    D-(2)-
    A--2-
    E--0-

    Akkord:
    e-0-
    H-0-
    G-0-
    D-2-
    A-2-
    E-0-

    guckst du hier

    die "x" bedeuten übrigens manchmal auch pm...
     
  7. -Silence-

    -Silence- Helpful & Friendly User HFU

    Im Board seit:
    03.11.05
    Zuletzt hier:
    20.02.15
    Beiträge:
    1.788
    Ort:
    Haiger
    Zustimmungen:
    36
    Kekse:
    4.952
    Erstellt: 01.01.08   #7
    Du kannst Palm Mute auch anwenden, wenn Du die Basssaiten (E, A, D) separat spielst und mit Palm Mute solltest Du sowieso viel experimentieren.

    Grüße

    Kay
     
  8. Battery_1988

    Battery_1988 Registrierter Benutzer

    Im Board seit:
    21.12.05
    Zuletzt hier:
    12.11.15
    Beiträge:
    617
    Zustimmungen:
    5
    Kekse:
    565
    Erstellt: 01.01.08   #8
    Der Powerchord hat kein Tongeschlecht(Dur/Moll), da er nur aus Grundton + Quinte besteht. Ein "normaler" Akkord besteht aus (mind) 3 Tönen, nämlich Grundton, Terz und Quinte. Die Terz entscheidet dabei über Dur oder Moll. (kleine oder große).
    Und beim Powerchord bildet tatsächlich immer der tiefste Ton den Grundton. BFMV hat ja das typische Muster getabbt, das du praktisch übers ganze Griffbrett verschieben kannst, wobei dann eben der tiefste Ton dein Grundton is... spielt man die Zahl in den Klammern mit, ist das ..ein erweiterter Powerchord, wo man nochmals eine Oktave des Grundtons mitspielt.

    Edit: Hab was falsches geschrieben, laut Wiki ist der tiefste Ton nicht zwangsläufig Grundton. BSP Smoke on the water. Das Anfangsriff besitzt nicht die typische Powerchordstruktur, besteht aber auch aus 2 Tönen mit nem Abstand von ner Quinte.

    Und noch en Kleiner Hinweis: Mach Tabs in Textform in dieser Weise :
    Code:
    e|---------------------------------------------------------------------------|
    B|---------------------------------------------------------------------------|
    G|--0--------------0---------------0-------------2p0--2p0--------------------|
    D|-2---2-4---0----2----2-4---2----2----2-4----0-----4----4/5\4p0-------------|
    A|---------------------------------------------------------------------------|
    E|0-0-0---0-0--0-0--0-0---0-0--0-0--0-0----0-0--0----------------------------|
    x x x x x x x x x x x x x x x x x REPEAT 1x
    
    dann kann man die besser lesen.
    Hier en LInks zu den vB COdes..Klick
     
  9. ~*MetalQueen*~

    ~*MetalQueen*~ Threadersteller Registrierter Benutzer

    Im Board seit:
    03.12.07
    Zuletzt hier:
    2.10.09
    Beiträge:
    133
    Ort:
    nähe Heilbronn (B-W)
    Zustimmungen:
    0
    Kekse:
    63
    Erstellt: 01.01.08   #9
    Ok

    Was würde des bei dem Tab jetzt heißten? Dass die tiefe E seite stumm gestellt wird oder was ?!
     
  10. pslizer

    pslizer Registrierter Benutzer

    Im Board seit:
    01.10.07
    Zuletzt hier:
    11.07.11
    Beiträge:
    50
    Zustimmungen:
    0
    Kekse:
    10
    Erstellt: 01.01.08   #10
    Code:
    e|---------------------------------------------------------------------------|
    B|---------------------------------------------------------------------------|
    G|--0--------------0---------------0-------------2p0--2p0--------------------|
    D|-2---2-4---0----2----2-4---2----2----2-4----0-----4----4/5\4p0-------------|
    A|---------------------------------------------------------------------------|
    E|0-0-0---0-0--0-0--0-0---0-0--0-0--0-0----0-0--0----------------------------|
      x x x   x x  x x  x x   x x  x x  x x    x x REPEAT 1x
    
    (Erstmal ordentlich formatiert ...)
    Hier wird jeweils die Note gedämpft gespielt, unter der ein x ist, in diesem Fall die leere E-Saite. Versuch dabei, nen bisschen zu experimentieren, also mal weiter vorne, mal weiter hinten, mal fest, mal "locker" zu dämpfen.
     
  11. -=Mantas=-

    -=Mantas=- Registrierter Benutzer

    Im Board seit:
    08.10.06
    Zuletzt hier:
    18.11.16
    Beiträge:
    2.091
    Ort:
    Deutschlähnd
    Zustimmungen:
    246
    Kekse:
    3.363
    Erstellt: 01.01.08   #11
    Ja genau das ist dann eine Deadnote soweit ich weiß.
    Palm Mutes,bei denen hörst du den Ton noch,jedoch abgedämpft,das heißt er klingt nicht aus.
    Aber Palmutes werden auch egal wo angewendet,nicht nur bei powerchords.
    Bsp: von SLayer:(Black MAgic)

    -------------------------------
    -------------------------------
    --------------------------------
    -------------------------------
    -----------7--------7--8---------- und blabla so weiter...
    -0-0-0-0-----0--0-----------------
    PM
    (alle Töne auf der dicken E Saite gemuted,da sie sonst alle Töne überdecken würde->würd sich scheiße anhörn)

    Gruß
    und ein schönes Neues Mantas
     
  12. Battery_1988

    Battery_1988 Registrierter Benutzer

    Im Board seit:
    21.12.05
    Zuletzt hier:
    12.11.15
    Beiträge:
    617
    Zustimmungen:
    5
    Kekse:
    565
    Erstellt: 01.01.08   #12
    Nein würde ich nicht sagen. Bei ner Deadnote steht das X auf ner Saite, meistens jedenfalls.
    Das ganze Riff sieht Deadnote untypisch aus, ich denke der Autor meint damit ein ganz normales Pall Mute.


    Überhaupt ist das immer so ne Sache bei den handgeschriebenen Tabs, weil man ja nie weiß an welche der definierten Zeichen sich der Autor grade hält. Deswegen, Tabs sollten nur als Hilfe dienen, ein wenig Raushören im Song grade was Akzentuierungen angeht muss einfach selbst gemacht werden.

    Vielleicht sagst du mal das Lied, wenn du das grad bei dem genau wissen willst, ansonsten kann ich dir echt nur raten wirklich dich nicht 100% auf Tabs zu verlassen, sondern immer schön selbst das Lied anhören und dann selbst entscheiden.
     
  13. aZjdY

    aZjdY Registrierter Benutzer

    Im Board seit:
    28.07.07
    Zuletzt hier:
    4.10.15
    Beiträge:
    4.180
    Zustimmungen:
    38
    Kekse:
    10.921
    Erstellt: 01.01.08   #13
    Bei den Palm Mutes werden die zu spielenden Saiten mit dem Handballen abgedämpft und bei den x werden die Saiten mit den Fingern der Greifhand gedämpft
     
  14. Battery_1988

    Battery_1988 Registrierter Benutzer

    Im Board seit:
    21.12.05
    Zuletzt hier:
    12.11.15
    Beiträge:
    617
    Zustimmungen:
    5
    Kekse:
    565
    Erstellt: 01.01.08   #14
    Genau. IN dem Fall die leere E-Saite:rolleyes::) Da widerspricht sich was.
     
  15. aZjdY

    aZjdY Registrierter Benutzer

    Im Board seit:
    28.07.07
    Zuletzt hier:
    4.10.15
    Beiträge:
    4.180
    Zustimmungen:
    38
    Kekse:
    10.921
    Erstellt: 01.01.08   #15
    Warum?
     
  16. Tapio Bearking

    Tapio Bearking Registrierter Benutzer

    Im Board seit:
    27.11.07
    Zuletzt hier:
    18.12.09
    Beiträge:
    44
    Ort:
    Aschaffenburg / Castle Antrax
    Zustimmungen:
    0
    Kekse:
    10
    Erstellt: 02.01.08   #16
    Weil du auf einer leeren E-Saite keinen Finger hast, der abdämpfen könnte, deswegen leere Saite.
     
  17. aZjdY

    aZjdY Registrierter Benutzer

    Im Board seit:
    28.07.07
    Zuletzt hier:
    4.10.15
    Beiträge:
    4.180
    Zustimmungen:
    38
    Kekse:
    10.921
    Erstellt: 02.01.08   #17
    Naja, der Tab ist einfach falsch getabbt. Aber bei sowas hat man doch manchmal auch ne Legende dabei. Müsste eben statt den x PM steht oder x auf irgend ner Saite sein
     
  18. Battery_1988

    Battery_1988 Registrierter Benutzer

    Im Board seit:
    21.12.05
    Zuletzt hier:
    12.11.15
    Beiträge:
    617
    Zustimmungen:
    5
    Kekse:
    565
    Erstellt: 02.01.08   #18
    WIe willst du denn wie in diesem Fall eine leer gespielte Saite, also wo die Greifhand nicht eingesetzt wird, die Note mit der Greifhand abdämpfen?

    Edit: Sorry nicht gesehen das der Thread schon 2 Seiten hat..:o
     
Die Seite wird geladen...

mapping