was muss ich hier machen ???

von dantex, 20.01.07.

  1. dantex

    dantex Registrierter Benutzer

    Im Board seit:
    20.01.07
    Zuletzt hier:
    5.02.07
    Beiträge:
    14
    Zustimmungen:
    0
    Kekse:
    10
    Erstellt: 20.01.07   #1
    hi ich hab angefangen e-gitarre zu spielen hab davor kein instrument gespielt. nun hab ich eine frage, wo setzt ich meine finger auf der e gitarre hin ??? und welche finger??? und was macht die rechte hand ??? bitte um antwort.

    [FONT=courier new, courier]e|-----------------------------------------------------------------|
    B|-----------------------------------------------------------------|
    G|-----------------------------------------------------------------|
    D|-------1----------1-----------2----------------------------------|
    A|---2-4---2----2-4---2---2-2-4---2-------7-7-6-6------------------|
    E|-4----------0----------------------1-1---------------------------|

    [/FONT][FONT=courier new, courier]e|-----------------------------------------------------------------|
    B|-----------------------------------------------------------------|
    G|-------------------------------4-4-4-4-4-4-4-4-------------------|
    D|-6-6-6-6-6-6-6-2-2-2-2-2-2-2-2-4-4-4-4-4-4-4-4-4-4-4-4-4-4-4-4---|
    A|-6-6-6-6-6-6-6-2-2-2-2-2-2-2-2-2-2-2-2-2-2-2-2-4-4-4-4-4-4-4-4---|
    E|-4-4-4-4-4-4-4-0-0-0-0-0-0-0-0-----------------2-2-2-2-2-2-2-2---|
    [/FONT]
     
  2. mighty_Ibanez

    mighty_Ibanez Registrierter Benutzer

    Im Board seit:
    31.07.06
    Zuletzt hier:
    8.02.10
    Beiträge:
    373
    Zustimmungen:
    2
    Kekse:
    137
    Erstellt: 20.01.07   #2
    Wenn ich dann mal kurz die FAQ vom Board zitieren darf:

    Demnächst einfach mal googlen oder SuFu nutzen XD
     
  3. MasterZelgadis

    MasterZelgadis Registrierter Benutzer

    Im Board seit:
    19.02.06
    Zuletzt hier:
    22.12.10
    Beiträge:
    150
    Ort:
    Dülmen
    Zustimmungen:
    0
    Kekse:
    28
    Erstellt: 20.01.07   #3
    Naja, was die rechte Hand macht, das hörst du ja an dem Musikstück, zu dem die Tabs passen. Ansonsten, wenn es nicht aus einem Song stammt, spiel einfach Viertelnoten, zum Üben. Wenn das sitzt mach Achtel, oder spiel einige Noten länger, andere kürzer...was sich deiner Meinung nach besser anhört.
     
  4. dantex

    dantex Threadersteller Registrierter Benutzer

    Im Board seit:
    20.01.07
    Zuletzt hier:
    5.02.07
    Beiträge:
    14
    Zustimmungen:
    0
    Kekse:
    10
    Erstellt: 20.01.07   #4
    E------------------------------------------------------

    H------------------------------------------------------

    G------------------------------------------------------

    D------------------5-----------------------------------

    A------------------5-----------------------------------

    E------------------3-----------------------------------

    wie soll ich das hier machen miter der linken hand ??? wie soll das mit den bunden gehen ? wie komm ich da so schnell zu 3 und 5 gleichzeitig ???
     
  5. Hooker

    Hooker Registrierter Benutzer

    Im Board seit:
    04.03.06
    Zuletzt hier:
    22.05.12
    Beiträge:
    623
    Ort:
    A5300
    Zustimmungen:
    2
    Kekse:
    820
    Erstellt: 20.01.07   #5
    Du hast vier Finger zum greifen.

    Zeigefinger auf den 3ten Bund, Ring und kleinen Finger auf den 5ten und zwar gleichzeitig
     
  6. matze4

    matze4 Registrierter Benutzer

    Im Board seit:
    24.12.06
    Zuletzt hier:
    31.05.07
    Beiträge:
    3
    Zustimmungen:
    0
    Kekse:
    10
    Erstellt: 20.01.07   #6
    Linker Zeigefinger in den 3. Bund der E-Saite.
    Linker Ringfiger in den 5. Bund der A-Saiter
    Liner Kleinerfinger in den 5. Bund der D-Saite

    Mit der rechten hand (Plektrum) schlägst du die unteren drei Saiten an.

    Dann hast du den G Powerchord (G5).


    Finger kannst du nach deinen eigenen Möglichleiten umstellen.
     
  7. Ganty

    Ganty Registrierter Benutzer

    Im Board seit:
    11.03.05
    Zuletzt hier:
    6.10.16
    Beiträge:
    1.619
    Ort:
    Fürstentum Lippe
    Zustimmungen:
    24
    Kekse:
    11.912
    Erstellt: 20.01.07   #7
    Die Töne werden gleichzeitig gespielt, sowas nennt man Akkord. Die Töne werden von drei Fingern der linken Hand gegriffen.

    Verdammt, war mal wieder zu langsam...
     
  8. dantex

    dantex Threadersteller Registrierter Benutzer

    Im Board seit:
    20.01.07
    Zuletzt hier:
    5.02.07
    Beiträge:
    14
    Zustimmungen:
    0
    Kekse:
    10
    Erstellt: 21.01.07   #8
    ok danke euch allen. werde bestimmt noch öfter in den forum reinschreiben. ^^
     
  9. Philip1207

    Philip1207 Registrierter Benutzer

    Im Board seit:
    30.10.06
    Zuletzt hier:
    30.09.09
    Beiträge:
    63
    Zustimmungen:
    0
    Kekse:
    18
    Erstellt: 21.01.07   #9
    Wenn du echt keine Ahnung hast was du machen sollst empfehle ich dir ganz stark einen G-Lehrer oder wenigstens ein Einsteigerbuch.
     
mapping