Wie spielt man monolithic von monster magnet?

von Zakk Wylde 369, 04.06.05.

  1. Zakk Wylde 369

    Zakk Wylde 369 Registrierter Benutzer

    Im Board seit:
    23.07.04
    Zuletzt hier:
    31.12.15
    Beiträge:
    2.133
    Zustimmungen:
    3
    Kekse:
    1.440
    Erstellt: 04.06.05   #1
  2. Nightfall

    Nightfall Registrierter Benutzer

    Im Board seit:
    11.08.04
    Zuletzt hier:
    21.08.16
    Beiträge:
    68
    Ort:
    Dudelange (Luxemburg)
    Zustimmungen:
    1
    Kekse:
    97
    Erstellt: 05.06.05   #2
    Also für mich klingt das einfach nur nach Folgendem:
    Code:
    --------------------------------------
    --------------------------------------
    --------5--------5--------5--------8--
    --------5--------5--------5--------8--
    --3--3--3--3--3--3--3--3--3--3--3--6--
    --------------------------------------
    
    Jeweils 2 Achtelnoten und eine Viertelnote, die Achtel mit Palm Mute und das Ganze viermal hintereinander
     
  3. Zakk Wylde 369

    Zakk Wylde 369 Threadersteller Registrierter Benutzer

    Im Board seit:
    23.07.04
    Zuletzt hier:
    31.12.15
    Beiträge:
    2.133
    Zustimmungen:
    3
    Kekse:
    1.440
    Erstellt: 05.06.05   #3
    cool danke klingt super! Aber der gitarrist greigt weiter unten am grifbrett dewegen denk ich das es so geht:
    -----------------------------------------
    -----------------------------------------
    -----------------------------------------
    -----10--------------------------------------
    -----10-------------------------------------
    -8-8-8---------------------------------------
     
  4. Zakk Wylde 369

    Zakk Wylde 369 Threadersteller Registrierter Benutzer

    Im Board seit:
    23.07.04
    Zuletzt hier:
    31.12.15
    Beiträge:
    2.133
    Zustimmungen:
    3
    Kekse:
    1.440
    Erstellt: 05.06.05   #4
    Aha ich habs gefunden!
    Monolithic

    Tune down 2 whole steps

    Intro x2 x2

    |----------------------|-------------------|

    |---12-11-9---12-14-9--|---12-11-9---5-7-9-|

    |---12-11-9---12-14-9--|---12-11-9---5-7-9-|

    |---12-11-9---12-14-9--|---12-11-9---5-7-9-|

    |---10--9-7---10-12-7--|---10--9-7---3-5-7-|

    |-0---------0----------|-0---------0-------|

    Verse x8

    |----------------------|

    |---12-11-9---12-14-9--|

    |---12-11-9---12-14-9--|

    |---12-11-9---12-14-9--|

    |---10--9-7---10-12-7--|

    |-0---------0----------|

    Chorus x3 x1

    |---------|------------------|

    |---------|------------------|

    |--5---9--|------------------|

    |--5---9--|-7-7-7-7-7-7-7-7--|
    |--3---7--|-5-0-5-0-5-0-5-0--|

    |---------|------------------|

    Guitar Fill x2

    |-------------------------------|

    |-------------------------------|

    |-------------------------------|

    |-------------------------------|
    |-------------------------------|

    |-15-0-14-0-12---0--8-0-10-0-12-|

    Middle and Ending

    |-----------------------------|

    |-----9------9------9------12-|

    |-----9------9------9------12-|

    |-----9------9------9------12-|

    |-----7------7------7------10-|

    |-0-0----0-0----0-0----0-0----|


    Nathan Tobola - superjudge3@msn.com

    Wie muss ich den die gitarre stimmen wen da steht 2 ganze schritte runter! Also jede saite 2 töne runter?
     
  5. 36 cRaZyFiSt

    36 cRaZyFiSt Registrierter Benutzer

    Im Board seit:
    21.08.04
    Zuletzt hier:
    12.10.16
    Beiträge:
    5.978
    Ort:
    Regensburg
    Zustimmungen:
    123
    Kekse:
    5.448
    Erstellt: 05.06.05   #5
    jo, 2ganze Töne runter
    oder halt 4 Halbtöne :rolleyes:
     
  6. Mast3rT

    Mast3rT Registrierter Benutzer

    Im Board seit:
    22.01.05
    Zuletzt hier:
    6.01.10
    Beiträge:
    461
    Zustimmungen:
    0
    Kekse:
    102
    Erstellt: 05.06.05   #6
    2 Halbtöne wären schon kritisch, aber 4 mit normalen 9er oder 10er Saiten, kannst von vornherein knicken.

    Nur mal so als Tip, zum Üben find ichs nicht wichtig das Original Tuning zu haben, wo wär ich denn wenn ich mit meinem FR andauern ein paar Töne höher oder tiefer stimmen soll, dadurch verliert man nur wertvolle Zeit. Solangs keine OpenTunings sind ist doch alles in Butter, Dropped kann man ja immer ganz flott machen.

    mfG
     
Die Seite wird geladen...

mapping